Bush - Swallowed Chords & Tabs

 

Swallowed Chords & Tabs

Bush Chords & Tabs

Version: 5 Type: Tab 0 ratings
1 star 2 stars 3 stars 4 stars 5 stars
comments

Swallowed Tab

   
##################################################################################
# This file is the author's own work and represents their interpretation of the  #
# song. You may only use this file for private study, scholarship, or research.  #
##################################################################################

Date: 10 Jan 1997 18:46:26 -0000
From: Gerald Brisson 

These are the corrections to the song Swallowed, the other tab was quite a ways
off.  Here is my rendition.  This is my first tab.
Douse with Distortion!
Repeat a few times.
----------------------------------------|-----------------------------
----------------------------------------|-----------------------------
---------------6-----------------10-----|-----------------------------
---6--------6---------------10----------|-----------------------------
---6----4---------------8---------------|-----------------------------
---4---------------6/8------------------|-----------------------------
This is the next part where Gavin sings "Swallowed, Followed."
Gavin and Nigel use an effect that mixes a flanger and distortion.
Thats what gives it that neat "wohhhohhoh" sound.
-------------------------------------------------|--------------------
----9--------9-----9-----------------------------|--------------------
---11^------11----11-----10^---10^---10^---10^---|--------------------
-------------------------------------------------|--------------------
-------------------------------------------------|--------------------
-------------------------------------------------|--------------------


Date: Thu, 02 Jan 1997 22:30:56 -0800
From: Robinson 

**************************************************************************************************************

**************************************************************************************************************



                                 Bush
                               Swallowed 

Verse with distortion:
|----------------------------|
|----------------------------| Thats how I believe the verse part goes
|--------6--6--5--10----10---| you repeat this till Gavin starts singing
|--6-----6--6--5--10----10---| the chorus.
|--6--4--4--4--3--8--8--8----|
|--4-------------------------|


Chorus with distotion:
|----------------|
|----------------| Strum each chord 8 times.. this just the rythm guitar
|----------------| chorus I don't know the lead part so if anyone knows it
|--6--10--11--8--| please send it to me... and I don't have the solo so
|--6--10--11--8--| if anyone knows it send it to me please..
|--4--8---9---6--|


*****************************************************************************


Date: Tue, 14 Jan 1997 06:27:31 -0700
From: hfisher@montana.com

"Swallowed"  3rd track off "Razorblade Suitcase"
By Bush  Written by Gavin Rossdale

I saw this tabbed out by Marc Zeitlin , but it
was wrong.  Except for the chorus, which I simplified down to power
chords.  My tab also has a first guitar part, which is actually what 
most of this file is.

-----*****_Guitar_1_*****-----

Intro/Verse
e:----------------------------------------------------
b:----------------------------------------------------
g:--------------------10------------------------10----
d:-6-----8----10---10----10-6-8-11------10---10----10-
a:-6---8---8--10-8----------6-8----11---10-8----------
e:--4-6--------8------------4-6-------9-8------------

e:---------------------------------------------------
b:---------------------------------------------------
g:---------------------10----------------------------
d:--6-----8----10---10----10-6-666-10-10-10-5-5-5-6--
a:--6---8---8--10-8----------6-----------------------
e:--4-6--------8-------------4-----------------------

Chorus
e:----------------9-9-------9---------------------
b:--9(x8)-8(x8)-9-----9---9---9---11-11-----11-11-
g:---------------------10-------10-----10-10------

e:----------------9-------9-----------------
b:--9(x8)-8(x8)-9---9---9---6/11-6-6/11-11--
g:-------------------10---------------------

b:--------------------------------
g:-9-9-9-9-8-8-8-8--8-8-6-6-5-5-1- (x2)
d:--------------------------------

Verse
e:-------------------------------------
b:-------------------------------------
g:-------x-6-6-6-x----------x-10-10-10-
d:-6-6-6-x-6-6-6-x-10-10-10-x-10-10-10-  (x2)
a:-6-6-6-x-4-4-4-x-10-10-10-x-8--8--8--
e:-4-4-4-x-------x-8--8--8--x----------
[ Tab from: http://www.guitartabs.cc/tabs/b/bush/swallowed_tab_ver_5.html ]
e:-----------------------
b:-----------------------
g:-------6-6-6--------6~-
d:-6-6-x-6-6-6----6-6-6~- 
a:-6-6-x-4-4-4----6-6-4~-
e:-4-4-x----------4-4-4~-

Chorus
e:----------------9-9-------9---------------------
b:--9(x8)-8(x8)-9-----9---9---9---11-11-----11-11- (x3)
g:---------------------10-------10-----10-10------

b:--------------------------------
g:-9-9-9-9-8-8-8-8--8-8-6-6-5-5-1- (x3)
d:--------------------------------

Solo
b:--)-----
g:-9------  Strike the note 24 times, and gradually bend it

e:--------------------------------------------
b:--------------------------------------------
g:-5---5---5/8/9----9----9----9\5-------5/8/9-
d:---6---6-------10---10---10-----6-6-6-------

e:----------------------------------------
b:----------------------------------------
g:----9----9----9/13-13-13-13-12-12-12-12-
d:-10---10---10---------------------------

b:-------------17-17-17-17--------------
g:-17-17-17-17-------------13-13-13-13--

b:------------------------17-----------------
g:-12-12-12-12-17-17-17-17--17\1-------------

Verse
e:----------------------------------------------------
b:----------------------------------------------------
g:--------------------10------------------------10----
d:-6-----8----10---10----10-6-8-11------10---10----10-
a:-6---8---8--10-8----------6-8----11---10-8----------
e:--4-6--------8------------4-6-------9-8------------

e:---------------------------------------------------
b:---------------------------------------------------
g:---------------------10----------------------------
d:--6-----8----10---10----10-6-666-10-10-10-5-5-5-6--
a:--6---8---8--10-8----------6-----------------------
e:--4-6--------8-------------4-----------------------

Same chord pattern as the first, just play very loosly

Chorus
e:----------------9-9-------9---------------------
b:--9(x8)-8(x8)-9-----9---9---9---11-11-----11-11- (x2)
g:---------------------10-------10-----10-10------

b:-------------------------------
g:-9-9-9-9-9-9-9-9-8-8-6-6-5-5-1- (x2)
d:-------------------------------

e:----------------------------------------------pick--
b:---------------------------------------------scrape-
g:-5---5---5/8/9----9----9----9\5-------5/8/9--xxxxx--
d:---6---6-------10---10---10-----6-6-6---------------

b:--------------------------------
g:-9-9-9-9-8-8-8-8--8-8-6-6-5-5-1- (x2)
d:--------------------------------

b:--------------------------------
g:-9-9-9-9-8-8-8-8-13-13-13-17-17-
d:--------------------------------

b:----------------------------------------------------)
g:-9-9-9-9-8-8-8-8-13-13-13-17-17-17-17-17-18-19-20-21-

-fin-

-----*****_Guitar_2_*****-----

Verse
Same as first guitar verse

Chorus
g:-------------------------------
d:-6------10------11------8------
a:-6-(x4)-10-(x4)-11-(x4)-8-(x4)-
e:-4------8-------9-------6------

Second guitar does this whenever it plays

The outro for 2nd guitar, after the 1st guitar's bend on
the 21st fret, is just picking through this:

g:--10--
d:--10--
a:--8---

-fin-

I could be wrong, I could be right, if you don't like it, 
tab it yourself.

Timm  

***********************************************************

***********************************************************

Date: Wed, 2 Apr 1997 00:46:19 -0600 (CST)
From: matthew michael koenig 

So far all of the intros submitted for Swallowed by Bush have been pretty 
sketchy so I decided to send in one that is very close to being down to 
the note correct.  It will make a nice addition to the tabs currently posted


Swallowed by Bush
      "Razorblade Suitcase"
transcribed by:
Matt Koenig  
mmkoenig@uiuc.edu
Here is an update to the intro:

E|---------------------------------------------------|
B|---------------------------------------------------|
G|---------6-----------10--------6---------------10--|
D|-------6----------10-------------6---------10------|
A|----4----------8------------4-----------8----------|
e|-4----------8------------4----------/4-------------|

E|---------------------------------------------------|
B|---------------------------------------------------|
G|---------6------------10----------6----------------|
D|-------6-----------10-----------6---6--------------|
A|----4-----------8------------4------------8--------|
e|-4---------6/8------------4------------/8----------|



Matt Koenig
http://www.students.uiuc.edu/~mmkoenig/fof.html
Comments