Bush - Swallowed Chords & Tabs

 

Swallowed Chords & Tabs

Bush Chords & Tabs

Version: 3 Type: Tab 0 ratings
1 star 2 stars 3 stars 4 stars 5 stars
comments

Swallowed Tab

   
Swallowed-Bush
Tabbed by Graeme M

Intro + Verse (clean):
   A      D      C#    F#
--5-------5------4-----9--------------------------------
--5-------6------5-----10--------------------------------
--6-------7------6-----11-------------------------------
--7-------7------6-----11--------------------------------
--7-------5------4-----9--------------------------------
--5-------5------4-----9--------------------------------

Chorus (distorted)x2:
[ Tab from: http://www.guitartabs.cc/tabs/b/bush/swallowed_tab_ver_3.html ]
--5------4------5-------2------------------------------------
--5------5------6-------3------------------------------------
--6------6------7-------4------------------------------------
--7------6------7-------4------------------------------------
--7------4------5-------2------------------------------------
--5------4------5-------2------------------------------------

then A, C#, A, C#

back to verse.

Not sure about the solo, but hey, i'm a rhythm guitarist.

-gm-
Comments