Bush - Swallowed Chords & Tabs

 

Swallowed Chords & Tabs

Bush Chords & Tabs

Version: 1 Type: Bass Tab 0 ratings
1 star 2 stars 3 stars 4 stars 5 stars
comments

Swallowed Bass Tab

                              Swallowed
                               by BUSH

No bass 1st verse

Chorus:
                     "Swallowed..."
Part 1
G --------------------------------------------------------------- play
D --------------------------------------------------------------- this
A ----------------3-3-3-3-3-3-3-3-4-4-4-4-4-4-4-4-1-1-1-1-1-1-1-1 twice
E 4-4-4-4-4-4-4-4------------------------------------------------

then   "I'm with everyone..."
Part 2
G --------------------------------   play this twice
D --------------------------------
A ----------------3-3-3-3-3-3-3-3-
E 4-4-4-4-4-4-4-4-----------------

Verse 2
[ Tab from: http://www.guitartabs.cc/tabs/b/bush/swallowed_btab.html ]
G ---------------------------   play this 7 times
D ---------------------------  
A ------4-4-4--3-3-3--8-8-8--   
E 4-4-4----------------------

Chorus (same as before, only play each part 3 times)

Guitar solo
same as Part 2 of the Chorus.  Play 4 times (watch for the pause on reps
3 and 4)

Verse 3

bass comes in half-way thru, same as verse 2 (play twice)

Chorus

this time play Part 1 twice and Part 2 nine times
end chorus with 

A 4---\1----

Very End

E 4-4-4--4-4-4--4-4-4--     just keep repeating until song fades out.


That's it...this is my first tab attempt, so if you have any comments or
snide remarks, just email 'em to me.  Hope ya like it.

Wes





Comments