Bush - Strait No Chaser Chords & Tabs

 

Strait No Chaser Chords & Tabs

Bush Chords & Tabs

Version: 1 Type: Tab 0 ratings
1 star 2 stars 3 stars 4 stars 5 stars
comments

Strait No Chaser Tab

Author/Artist: Bush
Title: straight no chaser
Transcribed by: Saverain
Email: saverain@hotmail.com

This is what it sounds like to me and if you don't like it E-mail me
you'll have to find the lyrics somewhere else sorry. I are not to good words
I use my index and ring finger for the E chord in begining

v strum down
^ strum up

-----------------------------|-----------------------------|------------------
-----------------0-----------|-------0---------0-----------|------------------
----1------------6-----6-----|-----------------6-----6-----|------------------
-2--2--2-2-2/6-6---6-6---6---|-2--2----2-2/6-6---6-6---6---|------------------
-2--2--2-2-2/4-4-----------0-|-2--2----2-2/4-4-------------|------------------
-0--0----------------------0-|-0--0----------------------0-|------------------
 v  v  v v v v v ^ v v ^ v ^   verse  play softly                             

-|----------------------------------------------------------------------------
-|----------------------------------------------------------------------------
-|------------------------------------4----4---------7----7-------------------
-|-7-----7--------7-----7----7--4-----4--4-4---7-----7--7-7-------------------
-|-7-----7--------7-----7--7-7--2-2-2-2--2-2-2-5-5-5-5--5-5-5-----------------
-|-5-5-5-5--5-5-5-5-5-5-5--5-5------------------------------------------------
   v ^ v v  ^ v ^ v ^ v v  ^ v  v ^ v ^  ^ v ^ v ^ v v  ^ v ^                 

------------------------------------------------------------------------------
------------------------------------------------------------------------------
-----------------------------------4----4--------7----7-----------------------
-7-----7------------------7--4-----4--4-4/-7-----7--7-7-----------------------
-7-----7-------7-----7--7-7--2-2-2-2--2-2/-5-5-5-5--5-5--5--------------------
-5-5-5-5-5-5-5-5-5-5-5--5-5---------------------------------------------------
 same rythm                                                                   

------------------------------------------------------------------------------
------------------------------------------------------------------------------
------------------------------------------------------------------------------
-9-----9---9---12---------12-9-----9---9---12---------------------------------
-9-----9-9-9-9/12--12--12-12-9-----9-9-9-9/12---------------------------------
-7-7-7-7-7-7-7/10--10--10-10-7-7-7-7-7-7-7/10-10-10--10-10-10-----------------
 v ^ v v ^ v ^ v   v   ^  v                v  ^  v   ^  v con                 

-------------------------|---------------------------|------------------------
-------------------------|---------------0-----------|------------------------
-------------------------|-------1-------6-----6-----|------------------------
----------------------7\-|---------2/6-6---6-6---6---|------------------------
-------------------12----|-2--2-----/4-4-----------0-|------------------------
-10-10-10-10-10-10-10----|-0-----------------------0-|------------------------
                                                                              
[ Tab from: http://www.guitartabs.cc/tabs/b/bush/strait_no_chaser_tab.html ]
-|-----|----------|-----------------------------------------------------------
-|-----|----------|-----------------------------------------------------------
-|-----|----------|-----------------------------------------------------------
-|-----|----------|---------9--------12---------------------------------------
-|-----|----------|-9-9-9-9-9-9-9-9-/12--12-12-12-12-12-12\-------------------
-|-----|----------|-7-7-7-7-7-7-7-7-/10--10-10-10-10-10-10\-------------------
  verse chorus                                                                

------------------------------------------------------------------------------
------------------------------------------------------------------------------
------------------------------------------------------------------------------
------------------12----------------------------------------------------------
-9-9-9-9-9-9-9-9/-12-12-12-12-12-12-12-12-12-12-12-12-12-12-12\---------------
-7-7-7-7-7-7-7-7/-10-10-10-10-10-10-10-10-10-10-10-10-10-10-10\---------------
                                                                              

-|------|-----------|---------------------------------------------------------
-|------|-----------|--------0---------0--------------------------------------
-|------|-----------|------------------6-----6---6-----6---6------------------
-|------|-----------|--2--2----2-2/6-6---6-6---6---6-6---6--------------------
-|------|-----------|--2--2----2-2/4-4----------------------------------------
-|------|-----------|--0--0---------------------------------------------------
 interlude verse      outro                                                   

-------------------------|----------------------------------------------------
-------------------------|----------------------------------------------------
-----6---6---6---6-----6-|----------------------------------------------------
-6-6---6---6---6---6-6-6-|----------------------------------------------------
-----------------------4-|----------------------------------------------------
-------------------------|----------------------------------------------------
===========

BAND: Bush
SONG: Strait No Chaser
CD: Razorblade Suitcase

Intro/Verses:

------------------0-------0-|
------------------0-------0-|
------------------6-6-6-6-6-|
-4--4-4-4---------6-6-6-6-6-|
-4--4-4-4-2/4-4-4---4-4-4---|
-2--2-2-2-------------------|

Chorus:

Part 1: ("Its all in the...")

---------------------------------------------------------------------------|
---------------------------------------------------------------------------|
---------------------------------------------------------------------------|
-7-7-7-7-7-7-7-7-7-7-7-7-7-7-7-7-9-9-9-9-9-9-9-9-9-12-12-12-12-12-12-12-12-|
-7-7-7-7-7-7-7-7-7-7-7-7-7-7-7-7-9-9-9-9-9-9-9-9-9-12-12-12-12-12-12-12-12-|
-5-5-5-5-5-5-5-5-5-5-5-5-5-5-5-5-7-7-7-7-7-7-7-7-7-10-10-10-10-10-10-10-10-|

Part 2: ("War on our sides")

-------------------------------------------|
-------------------------------------------|
-------------------------------------------|
-9-9-9-9-9-9-9-9-9-12-12-12-12-12-12-12-12-|
-9-9-9-9-9-9-9-9-9-12-12-12-12-12-12-12-12-|
-7-7-7-7-7-7-7-7-7-10-10-10-10-10-10-10-10-|
====
Comments