Bush - Speed Kills Chords & Tabs

 

Speed Kills Chords & Tabs

Bush Chords & Tabs

Version: 2 Type: Tab 0 ratings
1 star 2 stars 3 stars 4 stars 5 stars
comments

Speed Kills Tab

   
##################################################################################
# This file is the author's own work and represents their interpretation of the  #
# song. You may only use this file for private study, scholarship, or research.  #
##################################################################################

Artist: Bush
Song: "Speed Kills" (The People That We Love)
Album: Golden State (2001)
Transcribed by: William Hage Chain (williamchain@bol.com.br)
       
|Note 1: This tab is INCOMPLETE!! I will finish it later : )|
|Note 2: My english is terrible, I´m Brazilian.   
   


Listen to the music a lot. Especialy the intro.



h - harmonic note
/ - slide up
\ - slide down
p - pull of

Intro:

Guitar 2: 
/\/Riff 1\/\
   h. 
e|-9---0--0--0--0--0--0--0--0--0--0--0--0---8---       
B|--9-10-10-10-10-10-10-10-10-10-10-10-10-10-10-       (1x)
G|--------8--8--8--8--8--8--8--8--8--8--8-------
D|----------------------------------------------
[ Tab from: http://www.guitartabs.cc/tabs/b/bush/speed_kills_tab_ver_2.html ]
e|--0--0--0--0--0--0--0--0--0--0--0--0---8------
B|-10-10-10-10-10-10-10-10-10-10-10-10-10-10----       (5x)
G|--8--8--x--8--8--x--8--8--8--8--8--8----------
D|----------------------------------------------

Note: This will complete 6 times (plus riff 2 will complete 8)..on the 
3th and 5th to 8th times guitar 1 plays the chords. Sounds better if the 
second guitarist use a volume pedal.

Guitar 3 (opitinal):
   h.......
e|-9-9-9-9-----( repeat while guitar 2)
B|--9-9-9-9----( plays riff 1         )
G|-------------|
D|-------------|

/\/Chords1\/\
Guitar 1: (Gavin plays the chords exacy like this)
e|------------------------------------|
B|------------------------------------|
G|------------------------------------|
D|--7-7-7-2-2-2-2-10-10-10-10-7-7-5-7-|
A|--7-7-7-2-2-2-2-10-10-10-10-7-7-5-7-|
E|--5-5-5-0-0-0-0--8--8--8--8-5-5-3-5-|


/\/Riff2\/\

Guitar 2:
e|-0-0-0-0-0-0-0-0-0-0-0-0-0-0-0-0--|
B|-4-4-4-4-4-4-4-4/5-5-5-5-5-5-5-5p-|
G|----------------------------------|
D|----------------------------------|
A|----------------------------------|
E|----------------------------------|
Comments