Bush - Prizefighter Chords & Tabs

 

Prizefighter Chords & Tabs

Bush Chords & Tabs

Version: 1 Type: Tab 0 ratings
1 star 2 stars 3 stars 4 stars 5 stars
comments

Prizefighter Tab

   
name: Jason Hovey

artist: Bush

SongTitle: Prizefighter

Tabs: This a great song off Bush's new cd.This is as close as it can 
get. Use heavy distortion throughout the song.

You should be able to figure out the rythem.

Intro:
e----------------------------------
B----------------------------------
G-9--------------------------------
D-9------------10----------7-------
A-7------------10----------7-------
E---------------8----------5-------

Throughout the verse and intro, Nigel plays this:

e--19--15---------15---------15----------
B---------15---------15---------15-------

Verse:

Keep going back and fourth between these chords on the verse.

C5                                A5
There are days, when I fear for my life.......

Prechorus:
[ Tab from: http://www.guitartabs.cc/tabs/b/bush/prizefighter_tab.html ]
Keep playing this.
e----
B----
G-9--
D-9--
A-7--
E----

When Gavins says "Better get your feet back on the ground"
play this:

e----
B----
G----
D-7--
A-7--
E-5--

Chorus:

e----------------------------------
B----------------------------------
G----------------3-2---------------
D-2---5-2-5-2-2--3-2-5-------------
A-2---5-2-5-2-2--1-0-5-------------
E-0---3-0-3-0-0------3-------------

Play that 3 times then play this:

e----------------------------------------
B----------------------------------------
G----------------------------------------
D--5--5-5-5-5-5-5---8-8-8-8-8--7--5--2---
A--5--5-5-5-5-5-5---8-8-8-8-8--7--5--2---
E--3--3-3-3-3-3-3---6-6-6-6-6--5--3--0---

Thats pretty much the song. If there are any questions, commments, or 
corrections, please email me. Thanks, Jason
Comments