Bush - Prize Fighter Chords & Tabs

 

Prize Fighter Chords & Tabs

Bush Chords & Tabs

Version: 1 Type: Tab 0 ratings
1 star 2 stars 3 stars 4 stars 5 stars
comments

Prize Fighter Tab

   
Name: Jimi Brewer

Tabs: Song:  Prizefighter
Artist:  Bush
Album:  The Science of Things
tuning: standard
transcrived by:  Jimi Brewer
email:  jesus.online@juno.com

intro:
gtr1:
feedback:
e----|
b----|
gtr2:
fade in w/ an Em, then play an Em x2

main:

e-------------------------|----0----0---0------------------|
b-----0--------0---0------|--0-0-----0--0-----------0------|
g-----5----5-----5---5----|--2--------2-2--2--2-2-2---2----|
d--5--5-----5---------5---|--2----2-----2-2--2--2------2---|
a--3-----3---3---------3--|--0----0-------------0--0----0--|
e-------------------------|--------------------------------|

reoccuring lead riff:
b-------------------
g---------------
d---------------

VERSE BREAK:
gtr1:
A
gtr2:
reoccuring lead line
vocal:
"hello...hello..."

PRECHRORUS:
gtr1:
Em       G
gtr2:
b--7------------12~~~~~12~~~~--|
g--9^~~9^r--12~~~~~~12~~~12~~--|
vocal:
"the best is yet to come..."
[ Tab from: http://www.guitartabs.cc/tabs/b/bush/prize_fighter_tab.html ]
gtr1:
C
gtr2:
b-----13~~----|
g--12~~~12~~--|
vocal:
"better get your feet back on the ground.."

CHORUS:
gtr1:
d----2-4---5---4-2-2-7/8-8-7\5--|
a----2-4---5---4-2-2-7/8-8-7\5--|
e-8\-0-2-0-3-0-2-0-0-5/6-6-5\3--|
vocal:
"I'm a prizefighter.."
gtr2:
I think it might be in dropped-d...I'm not sure though.

CHROUS END:
gtr1:
d-7--7-7-7-9/10-10-10-10\9\7--2
a-7--7-7-7-9/10-10-10-10\9\7--2
e-5--5-5-5-7/8---8--8--8\7\5--0

OUTRO:
gtr:
e--0!-0!--|
b--0!-0!--|
g--5!-2!--|
d--5!-2!--|
a--3!-0!--|

the verses are the main riff, play Cx2, then Ax2, and so forth.  Also,
the main riff's notes are really just an estimate, just pick some
strings from those chords ad yo should be ok.

key:
<#>-harmonic
/\-slide
~-vibrato
!-trill pick
^-bend
^r-bend and/or return to normal pitch

there yeh' go!  I was brief and only gave you the blueprints, it's up
to you to build the final product!
let me know what you think!  any ?'s, comments, flames, whatever...send
to: jesus.online@juno.com
Comments