Bush - Personal Holloway Chords & Tabs

 

Personal Holloway Chords & Tabs

Bush Chords & Tabs

Version: 2 Type: Tab 0 ratings
1 star 2 stars 3 stars 4 stars 5 stars
comments

Personal Holloway Tab

BAND: Bush
SONG: Personal Holloway
CD: Razorblade Suitcase

Intro/Chorus:

--------------------|
--------------------|
-----7-7-X-5--5-7-7-|
-7-X-7-7-X-5--5-7-7-|
-7-X-5-5-X-3--3-5-5-|
-5-X----------------|

Verse:

Everything is based on these chords:

-------------|every once |-------------------|
-------------|in a while |---------3b4--h4r3-|
-7--5--2--3--|add this   |-------------------|
-7--5--2--3--|after the  |-----4-------------|
-5--3--0--1--|1st two    |---4---4-----------|
-------------|chords     |-2-----------------|
P.M. or use 
harmonics w/ 
these chords.
[ Tab from: http://www.guitartabs.cc/tabs/b/bush/personal_holloway_tab_ver_2.html ]
Bridge:

Bass:    Lead:

         |-------|
-------| |-------|
-------| |-9-5-7-|
-------| |-9-5-7-|
-7-3-5-| |-7-3-5-|
         |-------|

Bass starts out, Lead jumps in and plays w/ bass then starts this:

--------------------|
--------------------|
-5--------5---------|
-5--------5---------|
-3--------3---------|
--------------------|
play this a few times while Rhythm plays:

-15-------15-------15-------|
----16-------16-------16----|
-------17-------17-------17-|
----------------------------|
----------------------------|
----------------------------|
---play this a few times----
====
Comments