Bush - Personal Holloway Chords & Tabs

 

Personal Holloway Chords & Tabs

Bush Chords & Tabs

Version: 1 Type: Bass Tab 0 ratings
1 star 2 stars 3 stars 4 stars 5 stars
comments

Personal Holloway Bass Tab

Personal Holloway
Bush
Razorblade Suitcase
Tabbed by Sosaboy

Intro
g----------------------------------------------------------------------------
d----------------------------------------------------------------------------
a----------------------------------------------------------------------------
e---2----7-7-----5-5-5-----7-7-7---2----7-7-----5-5-5-----7-7-7-

Verse (hard to hear but this is it)
g----------------------------------------------------------------------------
d----------------------------------------------------------------------------
a----------------------------------------------------------------------------
e---2------7-7---5-------2------7-7---5--------2----7-7---5---------
[ Tab from: http://www.guitartabs.cc/tabs/b/bush/personal_holloway_btab.html ]
Chorus(same as intro)
g----------------------------------------------------------------------------
d----------------------------------------------------------------------------
a----------------------------------------------------------------------------
e---2---7-7---5-5-5---7-7-7------2---7-7---5-5-5----7-7-7------

Bridge
g----------------------------------------------------------------------------
d----------------------------------------------------------------------------
a---7---3-3---5-5-5---5-3----7---3-3---5-5-5---5-3---------------
e----------------------------------------------------------------------------
thats about it if theres a part i the verse i missed like a little ditty or 
somthing just e-mail me BushFreak7765@aol.com. See you at the US open.

Comments