Bush - People That We Love Chords & Tabs

 

People That We Love Chords & Tabs

Bush Chords & Tabs

Version: 2 Type: Tab 0 ratings
1 star 2 stars 3 stars 4 stars 5 stars
comments

People That We Love Tab

The People That We Love - Bush
Golden State
Written by Gavin Rossdale
Tabbed by Aj Vanbergen

This is one of the best songs on the album, but on what I've seen of the tabs,
they are utter shit, so I've tabbed it step by step.

Intro: x3
|-5---5---5---5---5---5---5----5----5-5---5---5---5---5---5---5---|
|---4---4---4---4---4---4---4--5--------4---4---4---4---4---4---4-|
|---2---2---2---2---2---2---2----2------2---2-------2---2-------2-|
|-----------------------------------------------------------------|
|-----------------------------------------------------------------|
|-----------------------------------------------------------------|

|-5---------------------------------------------------------------|
|-5---------------------------------------------------------------|
|---2-------------------------------------------------------------|
|-----------------------------------------------------------------|
|-----------------------------------------------------------------|
|-----------------------------------------------------------------|

The 1st time this is repeated, a second guitar comes over the top with this:
2nd guitar:
|-----------------------------------------------------------------|
|-----------------------------------------------------------------|
|---------------5-5-5---------------------------------------------|
|-7-7-7-2-2-2-2-5-5-5-7-7\5-7\------------------------------------|
|-7-7-7-2-2-2-2-3-3-3-7-7\5-7\------------------------------------|
|-5-5-5-0-0-0-0-------5-5\3-5\------------------------------------|

After the 2nd part of the intro riff is played, the 2nd guitar comes in with:
2nd guitar: x2
|-----------------------------------------------------------------|
|-----------------------------------------------------------------|
|---------------5-5-5-5--------------------------5-5-5-5----------|
|-7-7-7-2-2-2-2-5-5-5-5-7-7\5-7m-7-7-7-2-2-2-2-5-5-5-5-7-7\5-7m---|
|-7-7-7-2-2-2-2-3-3-3-3-7-7\5-7m-7-7-7-2-2-2-2-3-3-3-3-7-7\5-7m---|
|-5-5-5-0-0-0-0---------5-5\3-5m-5-5-5-0-0-0-0---------5-5\3-5m---|

The 1st time that riff is repeated, the 1st guitar comes over with this:
1st guitar: 
|-----------------------------------------------------------------|
|-----------------------------------------------------------------|
|-8-8-8-8-8-8-8-8-8-8-8-8-8-8-8-8-9-9-9-9-9-9-9-9-9-9-9-9-9-9-9-9-|
|-----------------------------------------------------------------|
|-----------------------------------------------------------------|
|-----------------------------------------------------------------|

|-----------------------------------------------------------------|
|-----------------------------------------------------------------|
|-8-8-8-8-8-8-8-8-8-8-8-8-8-8-8-8-9-9-9-9-9-9-9-9-9-9-9-9-9-9-9-9-|
|-----------------------------------------------------------------|
|-----------------------------------------------------------------|
|-----------------------------------------------------------------|

Verse: Both Guitars
PM............................................................
|-----------------------------------------------------------------|
|-----------------------------------------------------------------|
|---------------5-5-5-5------------------------5-5-5-5------------|
|-7-7-7-2-2-2-2-5-5-5-5-7-7-5-7--7-7-7-2-2-2-2-5-5-5-5-7-7-5-7----|
|-7-7-7-2-2-2-2-3-3-3-3-7-7-5-7--7-7-7-2-2-2-2-3-3-3-3-7-7-5-7----|
|-5-5-5-0-0-0-0---------5-5-3-5--5-5-5-0-0-0-0---------5-5-3-5----|

PM.....................................................
|-----------------------------------------------------------------|
|-----------------------------------------------------------------|
|---------------5-5-5-5------------------------5-5-5-5------------|
|-7-7-7-2-2-2-2-5-5-5-5-7-7-5-7--7-7-7-2-2-2-2-5-5-5-5-7-7\5-7----|
|-7-7-7-2-2-2-2-3-3-3-3-7-7-5-7--7-7-7-2-2-2-2-3-3-3-3-7-7\5-7----|
|-5-5-5-0-0-0-0---------5-5-3-5--5-5-5-0-0-0-0---------5-5\3-5----|

Then it's the intro riff again:
1st guitar: x2
|-----------------------------------------------------------------|
|-----------------------------------------------------------------|
|-8-8-8-8-8-8-8-8-8-8-8-8-8-8-8-8-9-9-9-9-9-9-9-9-9-9-9-9-9-9-9-9-|
|-----------------------------------------------------------------|
|-----------------------------------------------------------------|
|-----------------------------------------------------------------|

2nd Guitar:
|-----------------------------------------------------------------|
|-----------------------------------------------------------------|
|---------------5-5-5-5------------------------5-5-5-5------------|
|-7-7-7-2-2-2-2-5-5-5-5-7-7-5/7--7-7-7-2-2-2-2-5-5-5-5-7-7-5/7----|
|-7-7-7-2-2-2-2-3-3-3-3-7-7-5/7--7-7-7-2-2-2-2-3-3-3-3-7-7-5/7----|
|-5-5-5-0-0-0-0---------5-5-3/5--5-5-5-0-0-0-0---------5-5-3/5----|

Then comes the verse riff once again:
Verse:
PM............................................................
|-----------------------------------------------------------------|
|-----------------------------------------------------------------|
|---------------5-5-5-5------------------------5-5-5-5------------|
|-7-7-7-2-2-2-2-5-5-5-5-7-7-5-7--7-7-7-2-2-2-2-5-5-5-5-7-7-5-7----|
|-7-7-7-2-2-2-2-3-3-3-3-7-7-5-7--7-7-7-2-2-2-2-3-3-3-3-7-7-5-7----|
|-5-5-5-0-0-0-0---------5-5-3-5--5-5-5-0-0-0-0---------5-5-3-5----|

PM....................................................
|-----------------------------------------------------------------|
|-----------------------------------------------------------------|
|---------------5-5-5-5------------------------5-5-5-5------------|
|-7-7-7-2-2-2-2-5-5-5-5-7-7-5-7--7-7-7-2-2-2-2-5-5-5-5-7-7-5/7----|
|-7-7-7-2-2-2-2-3-3-3-3-7-7-5-7--7-7-7-2-2-2-2-3-3-3-3-7-7-5/7----|
|-5-5-5-0-0-0-0---------5-5-3-5--5-5-5-0-0-0-0---------5-5-3/5----|

Chorus: Guitar 1
|-----------------------------------------------------------------|
|-----------------------------------------------------------------|
|-------9-9-9-9-5-5-5-5----------------9-9-9-9-5-5-5-5------------|
|-7-7-7-9-9-9-9-5-5-5-5-7-7\5-7--7-7-7-9-9-9-9-5-5-5-5-7-7\5-7----|
|-7-7-7-7-7-7-7-3-3-3-3-7-7\5-7--7-7-7-7-7-7-7-3-3-3-3-7-7\5-7----|
|-5-5-5-----------------5-5\3-5--5-5-5-----------------5-5\3-5----|

|-----------------------------------------------------------------|
|-----------------------------------------------------------------|
|-8-8-8-8-8-8-8-8-8-8-8-8-8-8-8-8-9-9-9-9-9-9-9-9-9-9-9-9-9-9-9-9-|
|-----------------------------------------------------------------|
|-----------------------------------------------------------------|
|-----------------------------------------------------------------|

|-----------------------------------------------------------------|
|-----------------------------------------------------------------|
|-8-8-8-8-8-8-8-8-8-8-8-8-8-8-8-8-9-9-9-9-9-9-9-9-9-9-9-9-9-9-9-9-|
|-----------------------------------------------------------------|
|-----------------------------------------------------------------|
|-----------------------------------------------------------------|

Chorus: Guitar 2
|-----------------------------------------------------------------|
|-----------------------------------------------------------------|
|---------------5-5-5-5------------------------5-5-5-5------------|
|-7-7-7-2-2-2-2-5-5-5-5-7-7\5-7--7-7-7-2-2-2-2-5-5-5-5-7-7\5-7----|
|-7-7-7-2-2-2-2-3-3-3-3-7-7\5-7--7-7-7-2-2-2-2-3-3-3-3-7-7\5-7----|
|-5-5-5-0-0-0-0---------5-5\3-5--5-5-5-0-0-0-0---------5-5\3-5----|

|-----------------------------------------------------------------|
|-----------------------------------------------------------------|
|---------------5-5-5-5------------------------5-5-5-5------------|
|-7-7-7-2-2-2-2-5-5-5-5-7-7\5-7--7-7-7-2-2-2-2-5-5-5-5-7-7\5-7----|
|-7-7-7-2-2-2-2-3-3-3-3-7-7\5-7--7-7-7-2-2-2-2-3-3-3-3-7-7\5-7----|
|-5-5-5-0-0-0-0---------5-5\3-5--5-5-5-0-0-0-0---------5-5\3-5----|

Bridge: Both Guitars
|-----------------------------------------------------------------|
|-----------------------------------------------------------------|
|-----------------------------------------------------------------|
|-----------------------------------------------------------------|
|---------------------------------7-7-7-7-7-7-7-7-7-7-7-7-7-7-7-7-|
|-1-1-1-1-1-1-1-1-1-1-1-1-1-1-1-1-5-5-5-5-5-5-5-5-5-5-5-5-5-5-5-5-|

|-----------------------------------------------------------------|
|-----------------------------------------------------------------|
|---------------------------------5-5-5-5-5-5---------------------|
|---------------------------------5-5-5-5-5-5-5-5-5-5-5-5-3-3-3-3-|
|-3-3-3-3-3-3-3-3-3-3-3-3-3-3-3-3-3-3-3-3-3-3-5-5-5-5-5-5-3-3-3-3-|
|-1-1-1-1-1-1-1-1-1-1-1-1-1-1-1-1-------------3-3-3-3-3-3-1-1-1-1-|

|-----------------------------------------------------------------|
|-----------------------------------------------------------------|
|-----------------------------------------------------------------|
|-3-3-3-3-3-3-3-3-3-3-7-7-7-7-7-7-7-7-7-7-7-7-7-7-3-3-3-3-3-3-3-3-|
|-3-3-3-3-3-3-3-3-3-3-7-7-7-7-7-7-7-7-7-7-7-7-7-7-3-3-3-3-3-3-3-3-|
|-1-1-1-1-1-1-1-1-1-1-5-5-5-5-5-5-5-5-5-5-5-5-5-5-1-1-1-1-1-1-1-1-|

|-----------------------------------------------------------------|
|-----------------------------------------------------------------|
|-------------5-5-5-5-5-5-----------------------------------------|
|-3-3-3-3-3-3-5-5-5-5-5-5-5-5-5-5-5-5---(short pause)-------------|
|-3-3-3-3-3-3-3-3-3-3-3-3-5-5-5-5-5-5-----------------------------|
|-1-1-1-1-1-1-------------3-3-3-3-3-3-----------------------------|

Interlude: Guitar 1
|-----------------------------------------------------------------|
|-----------------------------------------------------------------|
|-----------------------------------------------------------------|
|-----------------------------------------------------------------|
|-------------3-3-3-3---------------------------------------------|
|-5-5-5-0-0-0---------5-5\3/5-------------------------------------|
[ Tab from: http://www.guitartabs.cc/tabs/b/bush/people_that_we_love_tab_ver_2.html ]
Then, yet again, it's the intro riff:
1st guitar: x2
|-----------------------------------------------------------------|
|-----------------------------------------------------------------|
|-8-8-8-8-8-8-8-8-8-8-8-8-8-8-8-8-9-9-9-9-9-9-9-9-9-9-9-9-9-9-9-9-|
|-----------------------------------------------------------------|
|-----------------------------------------------------------------|
|-----------------------------------------------------------------|

2nd Guitar:
|-----------------------------------------------------------------|
|-----------------------------------------------------------------|
|---------------5-5-5-5------------------------5-5-5-5------------|
|-7-7-7-2-2-2-2-5-5-5-5-7-7-5/7--7-7-7-2-2-2-2-5-5-5-5-7-7-5/7----|
|-7-7-7-2-2-2-2-3-3-3-3-7-7-5/7--7-7-7-2-2-2-2-3-3-3-3-7-7-5/7----|
|-5-5-5-0-0-0-0---------5-5-3/5--5-5-5-0-0-0-0---------5-5-3/5----|

Verse: Both Guitars
PM....................................................
|-----------------------------------------------------------------|
|-----------------------------------------------------------------|
|---------------5-5-5-5------------------------5-5-5-5------------|
|-7-7-7-2-2-2-2-5-5-5-5-7-7-5-7--7-7-7-2-2-2-2-5-5-5-5-7-7-5/7----|
|-7-7-7-2-2-2-2-3-3-3-3-7-7-5-7--7-7-7-2-2-2-2-3-3-3-3-7-7-5/7----|
|-5-5-5-0-0-0-0---------5-5-3-5--5-5-5-0-0-0-0---------5-5-3/5----|

PM....................................................
|-----------------------------------------------------------------|
|-----------------------------------------------------------------|
|---------------5-5-5-5------------------------5-5-5-5------------|
|-7-7-7-2-2-2-2-5-5-5-5-7-7-5-7--7-7-7-2-2-2-2-5-5-5-5-7-7-5/7----|
|-7-7-7-2-2-2-2-3-3-3-3-7-7-5-7--7-7-7-2-2-2-2-3-3-3-3-7-7-5/7----|
|-5-5-5-0-0-0-0---------5-5-3-5--5-5-5-0-0-0-0---------5-5-3/5----|

Then comes the Chorus again:
Chorus: Guitar 1
|-----------------------------------------------------------------|
|-----------------------------------------------------------------|
|-------9-9-9-9-5-5-5-5----------------9-9-9-9-5-5-5-5------------|
|-7-7-7-9-9-9-9-5-5-5-5-7-7\5-7--7-7-7-9-9-9-9-5-5-5-5-7-7\5-7----|
|-7-7-7-7-7-7-7-3-3-3-3-7-7\5-7--7-7-7-7-7-7-7-3-3-3-3-7-7\5-7----|
|-5-5-5-----------------5-5\3-5--5-5-5-----------------5-5\3-5----|

|-----------------------------------------------------------------|
|-----------------------------------------------------------------|
|-8-8-8-8-8-8-8-8-8-8-8-8-8-8-8-8-9-9-9-9-9-9-9-9-9-9-9-9-9-9-9-9-|
|-----------------------------------------------------------------|
|-----------------------------------------------------------------|
|-----------------------------------------------------------------|

|-----------------------------------------------------------------|
|-----------------------------------------------------------------|
|-8-8-8-8-8-8-8-8-8-8-8-8-8-8-8-8-9-9-9-9-9-9-9-9-9-9-9-9-9-9-9-9-|
|-----------------------------------------------------------------|
|-----------------------------------------------------------------|
|-----------------------------------------------------------------|

Chorus: Guitar 2
|-----------------------------------------------------------------|
|-----------------------------------------------------------------|
|---------------5-5-5-5------------------------5-5-5-5------------|
|-7-7-7-2-2-2-2-5-5-5-5-7-7\5-7--7-7-7-2-2-2-2-5-5-5-5-7-7\5-7----|
|-7-7-7-2-2-2-2-3-3-3-3-7-7\5-7--7-7-7-2-2-2-2-3-3-3-3-7-7\5-7----|
|-5-5-5-0-0-0-0---------5-5\3-5--5-5-5-0-0-0-0---------5-5\3-5----|

|-----------------------------------------------------------------|
|-----------------------------------------------------------------|
|---------------5-5-5-5------------------------5-5-5-5------------|
|-7-7-7-2-2-2-2-5-5-5-5-7-7\5-7--7-7-7-2-2-2-2-5-5-5-5-7-7\5-7----|
|-7-7-7-2-2-2-2-3-3-3-3-7-7\5-7--7-7-7-2-2-2-2-3-3-3-3-7-7\5-7----|
|-5-5-5-0-0-0-0---------5-5\3-5--5-5-5-0-0-0-0---------5-5\3-5----|

Bridge: Both Guitars
|-----------------------------------------------------------------|
|-----------------------------------------------------------------|
|-----------------------------------------------------------------|
|-----------------------------------------------------------------|
|---------------------------------7-7-7-7-7-7-7-7-7-7-7-7-7-7-7-7-|
|-1-1-1-1-1-1-1-1-1-1-1-1-1-1-1-1-5-5-5-5-5-5-5-5-5-5-5-5-5-5-5-5-|

|-----------------------------------------------------------------|
|-----------------------------------------------------------------|
|---------------------------------5-5-5-5-5-5---------------------|
|---------------------------------5-5-5-5-5-5-5-5-5-5-5-5-3-3-3-3-|
|-3-3-3-3-3-3-3-3-3-3-3-3-3-3-3-3-3-3-3-3-3-3-5-5-5-5-5-5-3-3-3-3-|
|-1-1-1-1-1-1-1-1-1-1-1-1-1-1-1-1-------------3-3-3-3-3-3-1-1-1-1-|

|-----------------------------------------------------------------|
|-----------------------------------------------------------------|
|-----------------------------------------------------------------|
|-3-3-3-3-3-3-3-3-3-3-7-7-7-7-7-7-7-7-7-7-7-7-7-7-3-3-3-3-3-3-3-3-|
|-3-3-3-3-3-3-3-3-3-3-7-7-7-7-7-7-7-7-7-7-7-7-7-7-3-3-3-3-3-3-3-3-|
|-1-1-1-1-1-1-1-1-1-1-5-5-5-5-5-5-5-5-5-5-5-5-5-5-1-1-1-1-1-1-1-1-|

|-----------------------------------------------------------------|
|-----------------------------------------------------------------|
|-------------5-5-5-5-5-5-----------------------------------------|
|-3-3-3-3-3-3-5-5-5-5-5-5-5-5-5-5-5-5-----------------------------|
|-3-3-3-3-3-3-3-3-3-3-3-3-5-5-5-5-5-5-----------------------------|
|-1-1-1-1-1-1-------------3-3-3-3-3-3-----------------------------|

Middle 8th: Guitar 2
|-----------------------------------------------------------------|
|-----------------------------------------------------------------|
|-------5---------------------------------------------------------|
|-7--2--5--7(lr)--------------------------------------------------|
|-7--2--3--7(lr)--------------------------------------------------|
|-5--0-----5(lr)--------------------------------------------------|

Guitar 1:
|-----------------------------------------------------------------|
|-----------------------------------------------------------------|
|-----------------------------------------------------------------|
|---------ps(---------------------------------------------------)-|
|---------ps(---------------------------------------------------)-|
|---------ps(---------------------------------------------------)-|

|-----------------------------------------------------------------|
|-----------------------------------------------------------------|
|-------5------------------5------------------5-------------------|
|-7--2--5--7--5/7-7--7--2--5--7--5/7-7--7--2--5--7--5/7-7---------|
|-7--2--3--7--5/7-7--7--2--3--7--5/7-7--7--2--3--7--5/7-7---------|
|-5--0-----5--3/5-5--5--0-----5--3/5-5--5--0-----5--3/5-5---------|

|----------------------|
|----------------------|
|-------5--------------|
|-7--2--5--7--5/7-7----|
|-7--2--3--7--5/7-7----|
|-5--0-----5--3/5-5----|

Middle 8th (2): Guitar 2
|-----------------------------------------------------------------|
|-----------------------------------------------------------------|
|-----------------------------------------------------------------|
|-7--2--5--7(lr)--------------------------------------------------|
|-7--2--5--7(lr)--------------------------------------------------|
|-5--0--3--5(lr)--------------------------------------------------|

Guitar 2:
|----------5~~--5-5-5-5-5-5-5-5-----------------------------------|
|----------------4-4-4-4-4-4-4-5----------------------------------|
|-----------------------------------------------------------------|
|-----------------------------------------------------------------|
|-----------------------------------------------------------------|
|-----------------------------------------------------------------|

Solo:
|--5b-------------------------------------------------------------|
|--------3b-------------------------------------------------------|
|------2-----2~~-2-4-5-2-4-5-4-2-7b--2~~-2-4-5-2-4-5-4-2-7b/14----|
|-----------------------------------------------------------------|
|-----------------------------------------------------------------|
|-----------------------------------------------------------------|

Outro: Guitar 1
|-----------------------------------------------------------------|
|-----------------------------------------------------------------|
|-------9-9-9-9-5-5-5-5----------------9-9-9-9-5-5-5-5------------|
|-7-7-7-9-9-9-9-5-5-5-5-7-7\5-7--7-7-7-9-9-9-9-5-5-5-5-7-7\5-7----|
|-7-7-7-7-7-7-7-3-3-3-3-7-7\5-7--7-7-7-7-7-7-7-3-3-3-3-7-7\5-7----|
|-5-5-5-----------------5-5\3-5--5-5-5-----------------5-5\3-5----|

|-----------------------------------------------------------------|
|-----------------------------------------------------------------|
|-------9-9-9-9-5-5-5-5----------------9-9-9-9-5-5-5-5------------|
|-7-7-7-9-9-9-9-5-5-5-5-7-7\5-7--7-7-7-9-9-9-9-5-5-5-5-7-7\5-7----|
|-7-7-7-7-7-7-7-3-3-3-3-7-7\5-7--7-7-7-7-7-7-7-3-3-3-3-7-7\5-7----|
|-5-5-5-----------------5-5\3-5--5-5-5-----------------5-5\3-5----|

Guitar 2:
|-----------------------------------------------------------------|
|-----------------------------------------------------------------|
|---------------5-5-5-5------------------------5-5-5-5------------|
|-7-7-7-2-2-2-2-5-5-5-5-7-7\5-7--7-7-7-2-2-2-2-5-5-5-5-7-7\5-7----|
|-7-7-7-2-2-2-2-3-3-3-3-7-7\5-7--7-7-7-2-2-2-2-3-3-3-3-7-7\5-7----|
|-5-5-5-0-0-0-0---------5-5\3-5--5-5-5-0-0-0-0---------5-5\3-5----|

|-----------------------------------------------------------------|
|-----------------------------------------------------------------|
|---------------5-5-5-5------------------------5-5-5-5------------|
|-7-7-7-2-2-2-2-5-5-5-5-7-7\5-7--7-7-7-2-2-2-2-5-5-5-5-7-7\5-7----|
|-7-7-7-2-2-2-2-3-3-3-3-7-7\5-7--7-7-7-2-2-2-2-3-3-3-3-7-7\5-7----|
|-5-5-5-0-0-0-0---------5-5\3-5--5-5-5-0-0-0-0---------5-5\3-5----|

Ending: Both guitars
|-----------------------------------------------------------------|
|-----------------------------------------------------------------|
|-------5(lr)-----------------------------------------------------|
|-7--2--5(lr)-----------------------------------------------------|
|-7--2--3(lr)-----------------------------------------------------|
|-5--0------------------------------------------------------------|

Phew! That's that. If you have any comments, questions, or any of the usual
shit we tabbers ask if you have, then get in touch with me: 
 forever_in_debt@hotmail.com
                              Enjoy.
Comments