Bush - People That We Love Chords & Tabs

 

People That We Love Chords & Tabs

Bush Chords & Tabs

Version: 1 Type: Tab 0 ratings
1 star 2 stars 3 stars 4 stars 5 stars
comments

People That We Love Tab

This is just the main Riff from the new BUSH song
I havn't figured out anything else yet.
Any comments, corrections, Death threats ect don't bother to send to me


[ Tab from: http://www.guitartabs.cc/tabs/b/bush/people_that_we_love_tab.html ]
E--------------------------------------------------------------------
B---------------------------------------------------------------------
G-7-7---------101010--7--7-7----------------------------------------------------
D-7-7--7-7-7--101010--7--7-7-------------------------------------------------------
A-5-5--7-7-7--8-8-8---5--5-5---------------------------------------------------
E------5-5-5-------------------------------------------------------------

Then when Gavin Sings "what happened to you"
it just goes

E-------------------------------
B-------------------------
G-7---------10---7---------------
D-7----7----10---7-----------------
A-5----7----8----5--------------
E------5--------------------

P.S let every chord ring in above riff
Comments