Bush - Mouth Chords & Tabs

 

Mouth Chords & Tabs

Bush Chords & Tabs

Version: 1 Type: Tab 0 ratings
1 star 2 stars 3 stars 4 stars 5 stars
comments

Mouth Tab

   
Song:   Mouth
Artist: Bush
Album:  Sixteen Stone
Tabber: Adam Urbz
E-Mail: pickboy87@cs.com
Tuning: Standard

  Intro/Verses:
    E         G     F#
E|----------------------------------------------|
B|----------------------------------------------|
G|-----1------4-----3--(3/4-4-4-3--0----)-------|
D|-----2------5-----4--(--------------4-)-------|
A|--2--2------5-----4---------------------------|
E|--0--0----3-3-----2---------------------------|
[ Tab from: http://www.guitartabs.cc/tabs/b/bush/mouth_tab.html ]
  Chorus A:
    E5   G5  F#5       A5
E|----------------------------------------------|
B|----------------------------------------------|
G|----------------------------------------------|
D|--2-----5---4---------7-----------------------|
A|--2-----5---4---------7-----------------------|
E|--0-----3---2---------5-----------------------|

  Chorus B:(No,the chords are broken up)
    E       G       F#      D
E|--0---0---3---3---2---2---5---5------|
B|--0---0---3---3---2---2---5---5------|
G|--1---1---4---4---3---3---6---6------|
D|----2---2---5---5---4---4---7---7----|
A|----2---2---5---5---4---4---7---7----|
E|----0---0---3---3---2---2---5---5----|

  Break:("We've been missing long before...")
E|---------------|End-On---------|
B|---------------|---------------|
G|*-------------*|---------------|
D|*-/9--------5-*|--2------------|
A|--/9--------5--|--2------------|
E|--/7--------3--|--0------------|
Comments