Bush - Mouth (remix) Chords & Tabs

 

Mouth (remix) Chords & Tabs

Bush Chords & Tabs

Version: 2 Type: Tab 0 ratings
1 star 2 stars 3 stars 4 stars 5 stars
comments

Mouth (remix) Tab

#----------------------------------PLEASE NOTE---------------------------------#
#This file is the author's own work and represents their interpretation of the #
#song. You may only use this file for private study, scholarship, or research. #
#------------------------------------------------------------------------------#

Date: Fri, 5 Dec 1997 18:55:18 EST
From: N1Nana9568 
Subject: Tab: Mouth (Remix) by Bush

!!!Warning!!! This is the REMIX version of Mouth

Band: Bush
Song: Mouth (Remix)
Album: Deconstructed
Tabbed by: Jesse Nepivoda

Intro (synth for guitar)
e)----------------------|
B)----------------------|
G)---7--6--7--6---------|
D)----------------------|
A)----------------------|
E)----------------------|

during the synth intro do
*= volume knob swell
e)-------------|
B)-------------|
G)---7*--------|
D)-------------|
A)-------------|
E)-------------|

At 0:14
e)----------|
B)----------|
G)----------|
D)----------|
A)----------|
E)---2------|

Verse 1  (this note is all during song)
weird effects / pitch shifter
e)----------|
B)----------|
G)---4------|
D)----------|
A)----------|
E)----------|

At 0:53
e)-----------------|
B)-----------------|
G)-----------------|
D)-----------------|
A)---2---4---------|
E)---0---2---------|

At 1:15
e)-------------|
B)-------------|
G)----7--------|
D)-------------|
A)-------------|
E)-------------|

Chorus
e)----------------------------------------------|
B)----------------------------------------------|
G)----------------------------------------------|
D)---2--2--2--2---4--4--4--4--4-----------------|
A)---2--2--2--2---4--4--4--4--4-----------------|
E)---0--0--0--0---2--2--2--2--2-----------------|

After Chorus
e)---12----12--14----------|
B)-------------------------|
G)-------------------------|
D)-------------------------|
A)-------------------------|
E)-------------------------|

At 1:50
e)------------|
B)------------|
G)------------|
D)----9-------|
A)------------|
E)------------|
[ Tab from: http://www.guitartabs.cc/tabs/b/bush/mouth_remix_tab_ver_2.html ]
After 2nd Chorus
b=bend 1/2 step
e)--------------------------------------------------|
B)---5b--5b--5b--5b--5b--5b--5b--5b-----------------|
G)--------------------------------------------------|
D)--------------------------------------------------|
A)--------------------------------------------------|
E)--------------------------------------------------|

Before Bridge
b=bend 1/2 step
e)------------------------------|
B)------------------------------|
G)------------------------------|
D)---9--9b--9--8--9b------------|
A)------------------------------|
E)------------------------------|

After Bridge
b=bend w/ whammy bar
e)------------------------------------------------------------------|
B)------------------------------------------------------------------|
G)-----------------9--9--11--11--12 / 14--16--16--16----------------|
D)---9--9b--9-------------------------------------------------------|
A)------------------------------------------------------------------|
E)------------------------------------------------------------------|

At 4:38 until 5:35
e)---12--12--12--12--12--12--12--12----------------|
B)-------------------------------------------------|
G)-------------------------------------------------|
D)-------------------------------------------------|
A)-------------------------------------------------|
E)-------------------------------------------------|
for above riff
throw in some bends
end above riff on
e)---14b-------|
B)-------------|

End song doing chorus over and over

Lyrics

You gave me this
Made me give

Your silver grin
Still sticking it in
You have,
soul machine
Soul machine

The longest kiss
Stealing furniture days
Drift madly to you
Pollute my heart drain
You have
Broken in me
Broken me

All your mental armor
Drags me down
Nothing hurts,
Like your mouth

Your loaded smiles
Pretty just dessert
Wish it all for you
So much it never hurts
You have,
Soul machine
You have,
Stolen me

All your mental armor
Drags me down
We can't breathe
When you come around
All your mental armor
Drags me down
Nothing hurts,
Like your mouth
Mouth, mouth,
Your mouth

We've been missing long before
Never found our way home
We've been missing long before
Never found our way......

You gave me this
Made me give
You have,
Soul machine
Broken three

Chorus until end
Comments