Bush - Mouth Chords & Tabs

 

Mouth Chords & Tabs

Bush Chords & Tabs

Version: 1 Type: Bass Tab 0 ratings
1 star 2 stars 3 stars 4 stars 5 stars
comments

Mouth Bass Tab

This is a Tab that is 99% correct.  Some parts may be confusing but for
bass this is a really simple song.  The amp should be set for no Treble or
Mid with Bass all the way up.  Normal Tuning.  Here goes

				Mouth
			       by Bush
			 Tabbbed by Sean Jones

Intro and main riff of the song.  (You play this part unless otherwise noted)

G|-----------------------------||
D|*---------------------------*||
A|*---------------------------*||
E|----0---3----2---------------||

During the parts when Gavin Sings this,

"You have.....Soul  Machine"
G|----------------------------|
D|----------------------------|
A|----------------------------|
E|---------000-33-----2-------|

Play that.

There are three bass solos that I hear at 1:14, 2:17, and 4:08.  If there
are more it will probably be the same riff
[ Tab from: http://www.guitartabs.cc/tabs/b/bush/mouth_btab.html ]
G|----------------------------|
D|----------------------------|
A|--9-7--9-7--9-10-12-9-------|
E|----------------------------|

Chorus: (All your mental...)

G|----------------------------|
D|----------------------------|
A|----------------------------|
E|--0-0----3-3-2-2---5-55-----|

And last but no least the bridge

"We've been missing long before..."

G|----------------------------||
D|---------------------------*||
A|---22222222----------------*||
E|------------33333333--------||

Song Pattern goes

Intro/Verse 1
"Soul Machiene" riff
Verse 2
Solo
Riff again
Chorus
Verse 3
Second solo
Riff (yes Again)
Chorus
Bridge
Chorus

I belive that is correct.  The only part I'm not sure about is the song
order.  As of right now I'm too lazy to walk back up the stairs to listen
to the cd again and figure it out.  Just listen to the song and you'll
figure it out.  Happy Plucking.

Sean Jones (taskmage@geocities.com)




Comments