Bush - Machinehead Chords & Tabs

 

Machinehead Chords & Tabs

Bush Chords & Tabs

Version: 1 Type: Tab 1 rating
1 star 2 stars 3 stars 4 stars 5 stars
comments

Machinehead Tab

   
What up people, well i've seen so many crap tabs for
machine head
here's the REAL version of it.

******Standard Tuning********

x-muted string
/ \ -slide


E|----------------|
B|----------------|
G|6-6-6/8-8/9-9/11| 10x
D|x-x-x/x-x/x-x/x-|
A|4-4-4/6-6/7-7/9-|
E|----------------|

After the intro.(Nigel's part)
E|------------------------------------|
B|------------------------------------|
G|6-6-x-x-6-6-2-2-x-x-2-2-6-6-x-x-2-2-|
D|6-6-x-x-6-6-2-2-x-x-2-2-6-6-x-x-2-2-|
A|4-4-x-x-4-4-0-0-x-x-0-0-4-4-x-x-0-0-|
E|------------------------------------|

E|----------------|
B|----------------|
G|6-6-6/8-8/9-9/11| 3x
D|x-x-x/x-x/x-x/x-|
A|4-4-4/6-6/7-7/9-|
E|----------------|


Now for the verse(s)
Here's Gavin's part...

E|---------------------------|
B|---------------------------|
G|6-6-x-x-6-6-x-x-2-2-x-x-2-2| 2x
D|x-x-x-x-x-x-x-x-x-x-x-x-x-x|
A|4-4-x-x-4-4-x-x-0-0-x-x-0-0|
E|---------------------------|
[ Tab from: http://www.guitartabs.cc/tabs/b/bush/machinehead_tab.html ]
here's Nigels now...
E|------------------------------------|
B|------------------------------------|
G|6-6-x-x-6-6-2-2-x-x-2-2-6-6-x-x-2-2-|
D|6-6-x-x-6-6-2-2-x-x-2-2-6-6-x-x-2-2-| 
A|4-4-x-x-4-4-0-0-x-x-0-0-4-4-x-x-0-0-|play 2x
E|------------------------------------|
then after the verse..
E|----------------|
B|----------------|
G|6-6-6/8-8/9-9/11| 3x
D|x-x-x/x-x/x-x/x-|
A|4-4-4/6-6/7-7/9-|
E|----------------|

then this little soft part..

E|--------0------0------0---------0-0---------0-0--|
B|--2/4-5---5-4-5--5-4-5----------0-0---------0-0--|
G|------------------------4-4-4---2-2--4-4-4--2-2--|"I walk
D|------------------------5-5-5---2-2--5-5-5--2-2--| for my
A|------------------------5-5-5---0-0--5-5-5--0-0--| machine"
E|------------------------3-3-3--------3-3-3-------|

then.... 
E|----------------|
B|----------------|
G|6-6-6/8-8/9-9/11| 3x
D|x-x-x/x-x/x-x/x-|
A|4-4-4/6-6/7-7/9-|
E|----------------|

then the verse(s) again, then here's the chorus played out

"Got a Machine Head better than the rest...."
E|--------2-2-2---------0-0-0--|
B|--------2-2-2---------0-0-0--|
G|-9-9-9--4-4-4--6-6-6--2-2-2--|
D|-9-9-9--4-4-4--6-6-6--2-2-2--|
A|-7-7-7--2-2-2--4-4-4--0-0-0--|
E|-----------------------------|

Then this...

E|---------0-0---------0-0--|
B|---------0-0---------0-0--|
G|-4-4-4---2-2--4-4-4--2-2--|"I walk
D|-5-5-5---2-2--5-5-5--2-2--| for my
A|-5-5-5---0-0--5-5-5--0-0--| machine"
E|-3-3-3--------3-3-3-------|

then chorus a couple more times then this soft part at the end..

E|------------------------|
B|------------------------|
G|------------------------|
D|------------------------|
A|-4-4-4/7-7-7\4-4-4/7-7-7|
E|-2-2-2/5-5-5\2-2-2/5-5-5|

It all basically repeats, so have fun enjoy!
Comments