Bush - Machine Head Chords & Tabs

 

Machine Head Chords & Tabs

Bush Chords & Tabs

Version: 1 Type: Tab 0 ratings
1 star 2 stars 3 stars 4 stars 5 stars
comments

Machine Head Tab

   
Bush - Machine Head

e------------------|
B------------------|
G------------------| Repeat 10 times
D--------------4-4-|
A--4-4-6-6-6-7-----|
E------------------|


e---|
B---|
G-6-|
D-6-| Come in after the 2nd time then go to:
A-4-|
E---|


e---|
B---|
G---|
D-7-| After the 4th time  then go to:
A-7-|
E-5-|


e-----------------------|
B-----------------------|
G-6-x-x-x-6-------------| Repeat w/ variations, sometimes let chords ring
D-6-x-x-x-6---7-x-x-x-7-|
A-4-x-x-x-4---7-x-x-x-7-|
E-------------5-x-x-x-5-|

e---------------------|
B---------------------|
G---4-6-------9---6---| then after a few times:
D-2-4-6-7-----9-9-6-7-|
A-2-2-4-7-----7-9-4-7-|
E-0-----5-------7---5-|
[ Tab from: http://www.guitartabs.cc/tabs/b/bush/machine_head_tab.html ]
e------------------|
B-4-5-5-5--4-5-5-5-| 
G------------------|  Play this solo then back to:
D------------------|
A------------------|
E------------------|

e------------------|
B------------------|
G------------------|  And then:
D--------------4-4-|
A--4-4-6-6-6-7-----|
E------------------|

e-----------------------|
B-----------------------|
G-6-x-x-x-6-------------| Repeat w/ variations, sometimes let chords ring
D-6-x-x-x-6---7-x-x-x-7-|
A-4-x-x-x-4---7-x-x-x-7-|
E-------------5-x-x-x-5-|


And that's the song, I think that's it, e-mail me if I'm missin a part, I can't figure out what notes those are in the last like 4 seconds of the song, so sorry bought those, but e-mail me if you know what they are or need ne thing more for the song.  LPBand1@aol.com

Tabs by me!
Comments