Bush - Little Things Chords & Tabs

 

Little Things Chords & Tabs

Bush Chords & Tabs

Version: 5 Type: Tab 0 ratings
1 star 2 stars 3 stars 4 stars 5 stars
comments

Little Things Tab

Artist- Bush
Song- Little Things
Tabber- Iconoclast

Chorus
e|---------------------------------|
b|---------------------------------|
g|-------------5-5-5-5-5-5/7-7-7---|
d|-7-7-7-7/3-3-5-5-5-5-5-5/7-7-7---|
a|-7-7-7-7/3-3-3-3-3-3-3-3/5-5-5---|
E|-5-5-5-5/1-1---------------------|
 
Verse                               |at end play...
e|----------------------------------|------|
b|----------------------------------|------|
g|-----5-------5-------5--------7---|------|
d|---5-------5-------5--------4---4-|-7b-7-|
a|-7-----7-8-----8-7-----7-/5-------|------|
E|----------------------------------|------|

After the first chorus play...
e|----------------------------------------|
b|-8h10-------8-----10--------------------|
g|-7----9-7-9-7-9-7-7--7-9-7-9-7-9-7------|
d|-----------------------------------10-9-|
a|----------------------------------------|
E|----------------------------------------|
[ Tab from: http://www.guitartabs.cc/tabs/b/bush/little_things_tab_ver_5.html ]
Solo- Played with wah (strumming of octaves not shown)
e|------------------------------------------|
b|-----------------------------15b----------|
g|-12-12/14-------------------------9-------|
d|--x--x--x-10h12p10h12p10-12b------x-------|
a|-10-10/12-------------------------7-------|
E|------------------------------------------|

Bridge- played with either a flanger or phaser
e|--------------------------------------------|
b|--------------------------------------------|
g|--------------------12-12-12-12-12-14-14-14-|
d|-7-7-7-7-7/10-10-10-x--x--x--x--x--x--x--x--|
a|-x-x-x-x-x-x---x--x-10-10-10-10-10-12-12-12-|
E|-5-5-5-5-5/8---8--8-------------------------|

Outro- played with wah (strumming of octaves not shown)
e|----------------------------------------------------|
b|----------------------------------------------------|
g|-12-12/14----------------------------------14-17/19-|
d|--x--x--x-10h12-10--------------------------x--x--x-|
a|-10-10/12----------10h12-12-10-10-10-10-12-12-15/17-|
E|----------------------------------------------------|

Thats just about it. Tried to make it as complete as i could, if i didnt, comment, im 
new at this i need instruction :)
Comments