Bush - Little Things Chords & Tabs

 

Little Things Chords & Tabs

Bush Chords & Tabs

Version: 4 Type: Tab 0 ratings
1 star 2 stars 3 stars 4 stars 5 stars
comments

Little Things Tab

Bush, Little Things
John, john_spartans@hotmail.com
Hey, this is an awesome song and if you are in a band I recommend learning this song because it gets your adrenaline flowing!

3 symbol crashes, four sixteenths on the snare drum, then guitars and bass play:
Intro/Chorus
-----------------------------------------------------
-----------------------------------------------------
-----------------------------------------------------
-----7---7---7\3--3---10--10--10-10-10/12---12-------
-----7---7---7\3--3---10--10--10-10-10/12---12-------
-----5---5---5\1--1---08--08--08-08-08/10---10-------
[ Tab from: http://www.guitartabs.cc/tabs/b/bush/little_things_tab_ver_4.html ]
this part itsn't completely right, but just work with it and you'll get it sooner or later.  after gavin stops singing in the verses, play:
-----------------------------------------------------
-----------------------------------------------------
-----------------------------------------------------
--------7----------7----------7----------10----------
--5--7-------5--7-------3--7-------5--7--------------
-----------------------------------------------------

That's pretty much the whole song.  I'm really sorry about not nowing the real part to the verse, but once I get it I promise I'll post it on this website.  If you would like me to tab any song for you, send me an email at john_spartans@hotmail.com

Comments