Bush - Little Things Chords & Tabs

 

Little Things Chords & Tabs

Bush Chords & Tabs

Version: 2 Type: Tab 0 ratings
1 star 2 stars 3 stars 4 stars 5 stars
comments

Little Things Tab

"Little Things"  by Bush
Tabbed by Alec LaLonde (www.angelfire.com/ny4/cela)

Figure out the rhythms yourself...

Intro and Chorus riff
e--------------------------
B--------------------------
G-----------5--7-----------
D-----7--3--5--7----------- 4x
A-----7--3--3--5-----------
E-----5--1-----------------

third time mess around with
B--------------------------
G------3h5--55555--5h7-77--
D--------------------------

drum n bass 4 measures 
then interludish part

e----------------------------------
B------1-------1-------1-------3---
G---------------------------------- 2x
D----2---2---2---2---2---2---2---2-
A--3-------3-------3-------3-------
E----------------------------------

then at various parts during the song...
e----3h5--3v---------------
B--------------------------

drum n bass 4 measures again
then repeat interlude 3x
back to intro/chorus riff 3x
interlude 1x
then solo riff
[ Tab from: http://www.guitartabs.cc/tabs/b/bush/little_things_tab_ver_2.html ]
e-5v-----------5---------------------
B----3h5-3-5-3---3-5p3-5p3-5p3-------
G------------------------------5-4v--
D------------------------------------

drum n bass
3x interlude
then chorus riff 9x
6th time next solo comes in

w/ wah pedal
B-----------------------------------------------------
G--(really fast picking)---5h7-5h7-7b9-7b9-7b9-9------
D------5-----------5h7--------------------------------
A-----------------------------------------------------

then 2nd interlude
e----------------------------------
B----------------------------------
G------------------0-0-0-0-0-2-2-2-
D---------------------------------- 4x
A--0-0-0-0-3-3-3-3-----------------
E----------------------------------

back to main riff for about 17x
10th time another riff
w/ wah and some other effects
e-----------------------------------------
B----------------3h5-3--------------------
G-----------------------------------------
D-----------------------5-5-5h7-5555-7777-
A-----------------------------------------
E--333333-555555--------------------------

and end on
e-----
B-----
G-----
D--7--
A--7--
E--5--
Comments