Bush - Little Things Chords & Tabs

 

Little Things Chords & Tabs

Bush Chords & Tabs

Version: 1 Type: Bass Tab 0 ratings
1 star 2 stars 3 stars 4 stars 5 stars
comments

Little Things Bass Tab

Little Things

by Bush



transcribed by Jeff Powell

jpowell@escape.ca





Intro



G------------------------------

D*-----------------------------

A*-0-0-----3-3-3-3-3-3-5-5-----

E------1-1-----------------0---



Verse/Pre-Chorus



G------------------------------------

D*-----------------------------------

A*-0-0-0-0---------3-3-3-3-5-5-5-5---

E----------1-1-1-1-------------------



Chorus/Guitar Solo/Bridge



		      ----1----		  ----2----	  --3--


[ Tab from: http://www.guitartabs.cc/tabs/b/bush/little_things_btab.html ]
G-------------/----------------------/------------------/-------

D*------------/---------------------*/---------5-(5)---*/-------

A*-0-0-----3--/-(3)-3-3-3-3-3-5-5---*/-(3)-3-3---------*/-(3)---

E------1-1----/-------------------0--/---------------0--/-------



Lead into bridge



G--------------------/---------------------------------

D*------------------*/---------------------------------

A*-3-0-0-3-0-0-3-0--*/-12-12-12-12-12-12-12-12-12-15---

E--------------------/---------------------------------










Comments