Bush - Letting The Cables Sleep Chords & Tabs

 

Letting The Cables Sleep Chords & Tabs

Bush Chords & Tabs

Version: 2 Type: Bass Tab 0 ratings
1 star 2 stars 3 stars 4 stars 5 stars
comments

Letting The Cables Sleep Bass Tab

Song: Letting the Cables Sleep
Artist: Bush
Album: The Science of Things
Tabbed by: L.A.

It's pretty hard to hear the bassline in this song, but I do believe this is 
correct. Regular tuning, and these are all whole notes.

Verse & "Watching the lights go down..."
G|-------------|
D|-------------|
A|-------------|
E|--2---4---6--|
[ Tab from: http://www.guitartabs.cc/tabs/b/bush/letting_the_cables_sleep_btab_ver_2.html ]
Pre-Chorus "Whatever you say..."
G|-------------------|
D|-------------------|
A|-------------------|
E|--2/4--2/4--2/4--6-|

Chorus "Silence is not the way..."
G|--------------------|
D|--------------------|
A|--------------------|
E|-9/2--4--6---9/2--9-|

"I'm a stranger in this town..."
G|------------|
D|------------|
A|------------|
E|-9--6--4--1-|

Quite an easy song to play. Questions, Comments, playful banter? 
L_A_H@hotmail.com
Comments