Bush - Inflatable Chords & Tabs

 

Inflatable Chords & Tabs

Bush Chords & Tabs

Version: 5 Type: Tab 0 ratings
1 star 2 stars 3 stars 4 stars 5 stars
comments

Inflatable Tab

   
THIS IS MY FIRST TAB......

Tuning:  Drop D
Key:  b-bend
      v-vibrato
      /-slide up
      \-slide down


Verse: 3X

Guitar 1 

"Let it slide.....overhead when i  believe....rest"
  e---------------------------------------------|
  B---------------------------------------------|
  G---------------------------------------------|
  D-----0-0-0-0-0--4-4-4-4-4--7-7-7-7-7--5-5-5-5|
  A-----0-0-0-0-0--4-4-4-4-4--7-7-7-7-7--5-5-5-5|
  E-----0-0-0-0-0--4-4-4-4-4--7-7-7-7-7--5-5-5-5|

Guitar 2 (start 2nd time through verse)

 e--5----5---5-------5---5---5--------5---5----5--------3---3---3|
 B----7----7------------7---7------------5---5------------3---3--|
 G---------------------------------------------------------------|
 D---------------------------------------------------------------|
 A---------------------------------------------------------------|
 E---------------------------------------------------------------|
[ Tab from: http://www.guitartabs.cc/tabs/b/bush/inflatable_tab_ver_5.html ]
Chorus  
 
"...so pretty..in white...faithful................faithful.."
                                                  (let ring)  
 e------------0-0-0-0-0-------------0-0-0-0-0-----|---------|
 B------------1-1-1-1-1-------------1-1-1-1-1-----|---------|
 G------------0-0-0-0-0-------------0-0-0-0-0-----|---------|
 D-2-2-2-2-2--2-2-2-2-2--2-2-2-2-2--2-2-2-2-2-----|--/7----3|
 A-2-2-2-2-2--3-3-3-3-3--2-2-2-2-2--3-3-3-3-3-----|--/7----3|
 E-2-2-2-2-2--0-0-0-0-0--2-2-2-2-2--0-0-0-0-0-----|--/7----3|


Pre-Verse:

Guitar 1
 
 e-----------------|
 B-----------------|
 G-----------------|
 D-0-0-0-0--4-4-4-4|
 A-0-0-0-0--4-4-4-4|
 E-0-0-0-0--4-4-4-4|

Guitar 2  (2x)
 
 e--5---5-----5|
 B----7----7---|
 G-------------|
 D-------------|
 A-------------|
 E-------------|


Verse 

Chorus
  
 -end chorus on this chord 

 e------|
 B------|
 G------|
 D--\2--|
 A--\2--|
 E--\2--|

Solo

 e--------------------------------------------------------------|
 B--------------------------------------------------------------|
 G------------------------------------7-7-7--\6-6-7(v)----------|
 D--------------------------2-4-4-5-7-------------------2-4--/5-|
 A--5(v)--5-5-5--\4-4-4-/5--------------------------------------|
 E--------------------------------------------------------------|


" I don't mind...time....so far inside" 

 e---------------------------------------|
 B---------------------------------------|
 G---------------------------------------|
 D--------0------4------7-7-7-7--3-3-3---|
 A--------0------4------7-7-7-7--3-3-3---|
 E--------0------4------7-7-7-7--3-3-3---|


Chorus  4X

-end on this chord

 e-----|
 B-----|
 G-----|
 D--2--|
 A--2--|
 E--2--|

There you go, have fun with this song cause it's great!  I think the solo might
be a little off, but other than that it's sounds good!  Listen to the song to get
timming down, any questions or comments email me at Lovebug69s@yahoo.com! - Kristi
Comments