Bush - In A Lonely Place Chords & Tabs

 

In A Lonely Place Chords & Tabs

Bush Chords & Tabs

Version: 1 Type: Tab 0 ratings
1 star 2 stars 3 stars 4 stars 5 stars
comments

In A Lonely Place Tab

#----------------------------------PLEASE NOTE---------------------------------#
#This file is the author's own work and represents their interpretation of the #
#song. You may only use this file for private study, scholarship, or research. #
#------------------------------------------------------------------------------#

Date: Fri, 5 Dec 1997 18:13:25 EST
From: N1Nana9568 
Subject: Tab: In A Lonely Place by Bush

Band: Bush
Song: In A Lonely Place
Album: Deconstructed  and
The Crow-City Of Angels: Soundtrack
Tabbed by: Jesse Nepivoda


This song has hardly any guitar parts and is easy to play.

p=pull off

Riff 1
clean
e)-------------------||-
B)-------------------||-
G)---7--7p0----------||-
D)-------------------||-
A)-------------------||-
E)-------------------||-


[ Tab from: http://www.guitartabs.cc/tabs/b/bush/in_a_lonely_place_tab.html ]
Riff 2
clean
e)---------------------------
B)------------11--11-----
G)---7--7-----------------
D)--------------------------
A)--------------------------
E)--------------------------

Riff 3
w/ distortion
e)---------------------------
B)--------------------------
G)---12---0---0---0-----
D)--------------------------
A)--------------------------
E)--------------------------

At 3:10 Riff 1 and Riff 2 start alternating back and forth.

Riff 4
w/ distortion
e)---------------------------------------------------------------------------
B)--------------11--11------------------------------------------11--11-------
G)---------------------------------------------------------------------------
D)--12--12---------------12--12--12--12--12--12--12--------------------------
A)---------------------------------------------------------------------------
E)---------------------------------------------------------------------------

Comments