Bush - In A Lonely Place Chords & Tabs

 

In A Lonely Place Chords & Tabs

Bush Chords & Tabs

Version: 1 Type: Bass Tab 0 ratings
1 star 2 stars 3 stars 4 stars 5 stars
comments

In A Lonely Place Bass Tab

In a Lonely Place
Performed By Bush
On the Crow: City of Angels Soundtrack

Standard Tuning: EADG

G|------------------------------------------------------------------|
D|--------------5--5-5---3---3-3---------------------------------|
A|------------------------------------3--3--5----------------------|
E|--3-3-3---3---------------------------------5--3----------------|

That's the only bass riff I heard after several times of listening
intensely to the song...

Here's the guitar parts.

Main "humming" riff

E|--2-2-2-2-2-2-2-2-2-2-2-2-2-2-2-2-2-2-2-2-2-2-2-2-2---|
B|------------------------------------------------------------------|
G|------------------------------------------------------------------|
D|------------------------------------------------------------------|
A|------------------------------------------------------------------|
E|------------------------------------------------------------------|
That's the rythm guitar riff, played throughout the enitre song. It's
lightly distorted, and you just have to hit the string with growing
strength, then decrease, grow, decrease, etc., etc...
[ Tab from: http://www.guitartabs.cc/tabs/b/bush/in_a_lonely_place_btab.html ]
Lead guitar fill #1
E|-------3-------3------3-------------3---------------------------|
B|---3------3------3--------------3-------------------------------|
G|------------------------------------------------------------------|
D|------------------------------------------------------------------|
A|------------------------------------------------------------------|
E|------------------------------------------------------------------|
Listen for the exact number of times played.

Lead guitar fill #2
E|--2-2-2-2-2-2-2-----------------------------------------------|
B|--2-2-2-2-2-2-2-----------------------------------------------|
G|--0-0-0-0-0-0-0-----------------------------------------------|
D|------------------------------------------------------------------|
A|------------------------------------------------------------------|
E|------------------------------------------------------------------|

Again, listen for the exact number of times played.

I'm a bassist by trade, but I think for the most part the guitar parts
are accurate. I could be mistaken, however.

"And it feels like Heaven's so far away, and it stings 'cus the world is
so cold, now that you've gone away..."
-Dexter Holland, of the Offspring

christopher@gbamed.com



Comments