Bush - History Chords & Tabs

 

History Chords & Tabs

Bush Chords & Tabs

Version: 1 Type: Tab 0 ratings
1 star 2 stars 3 stars 4 stars 5 stars
comments

History Tab

BAND: Bush
SONG: History
CD: Razorblade Suitcase

Intro:
[ Tab from: http://www.guitartabs.cc/tabs/b/bush/history_tab.html ]
------0--------0-0-0-0-0-0-|------0--------0-0-0-0-0-0-|
-2ho3---3-2ho3---3/5-5-5-5-|-2ho3---3-2ho3---3/5-5-5-5-|
---------------------------|---------------------------|
---------------------------|---------------------------|
---------------------------|---------------------------|
---------------------------|---------------------------|
----------------------play 2 times---------------------
                 
Rhy. 1                              end Rhy.1 
                       ^^^^^^^
--------------------------------------------------|---------------------|
--------------------------------------------------|---------------------|
-7b9----7b9r7---7b9--4b5~~~7---------7b9----11b13-|-7-7-7-7-X-X-7-7-7-7-|
--------------------------------------------------|-5-5-5-5-X-X-5-5-5-5-|
--------------------------------------------------|---------------------|
--------------------------------------------------|---------------------|
                                                   play this a few times

Verse:

(2nd time play w/ some harmonics in there)

----0-0------|
-/5-5-5----0-|
----4-4----0-|
-----------0-| 
-----------0-|
-------------|
Play this freely while Gavin sings.
Listen to the song and youll catch on
to where the rhythm goes.

Pre-Chorus: ("I wont be safe...")

Play these chords:

-------------|
-------------|
-------------|
-9--5--2--4--|
-7--3--0--2--|
-------------|

Chorus: ("History moans...")

Play these chords:

-------------|
-------------|
-7--9--4--6--|
-5--7--2--4--|
-------------|
-------------|

There are some other solos in this. Just build them 
around the Rhy. 1 solo. (in the Intro)
====
Comments