Bush - Greedy Fly Chords & Tabs

 

Greedy Fly Chords & Tabs

Bush Chords & Tabs

Version: 3 Type: Tab 0 ratings
1 star 2 stars 3 stars 4 stars 5 stars
comments

Greedy Fly Tab

Bush, Greedy fly.
 Tabbed by Fuzy, tatkuru@another.com.
  
Song: Greedy Fly              
Band: Bush                  
Album: Razorblade suitcase
Tabbed by: Fuzy

Excellent song. Hope this works for ya.  These are the only parts I know and sorry but no solo.         

Intro

e--5-----------------------------------------|      |---------------------------5------------------------                                                                  
b--------5-----------5----------------------|       |---------------5-----------------5-----------5-----
g--------------5-----------5-----------5----|      |---------8-----------8-----------------8-----------
d--7-----------------------------7----------|       |---6------------------------------------------------                           
a--------------------------------------------|       |----------------------------------------------------
e--------------------------------------------|       |----------------------------------------------------

[ Tab from: http://www.guitartabs.cc/tabs/b/bush/greedy_fly_tab_ver_3.html ]
e-------------------------5------------------|      |-------------------------5--------------------------|
b--------------5---------------5---------5--|      |--------------8----------------8-----------8-------|
g--------5----------5---------------5-------|      |--------5----------5-----------------5-------------|
d--7-----------------------------------------|      |---6------------------------------------------------|
a---------------------------------------------|     |-----------------------------------------------------|
e---------------------------------------------|      | ----------------------------------------------------|


Pre chorus
e--------------------------------------------------------
b--------------------------------------------------------      Or easier said      C........G#.........C.........G#
g--5555555-----------------5555555----------------
d--5555555---6666666---5555555---6666666---
a--3333333---6666666---3333333---6666666---
e--3333333---4444444---3333333---4444444---


Chorus
e-------------------------------------|          
b-------------------------------------|          Or    A#...F...G#...F...G#...F
g--33--------------------------------|
d--33--33--66--33--6--3----------|
a--11--33--66--33--6--3----------|
e--11--11--44--11--4--1----------|


Interlude (or something)
e---9---------------9------------------
b--------10-10------------------------     2x
g-------------------------11-11-------
d---------------------------------------
a---------------------------------------
e---------------------------------------

 
:: Ultimate Guitar Archive :: 
http://www.ultimate-guitar.com 



Comments