Bush - Golden State Album Chords & Tabs

 

Golden State Album Chords & Tabs

Bush Chords & Tabs

Version: 1 Type: Tab 0 ratings
1 star 2 stars 3 stars 4 stars 5 stars
comments

Golden State Album Tab

   
##################################################################################
# This file is the author's own work and represents their interpretation of the  #
# song. You may only use this file for private study, scholarship, or research.  #
##################################################################################

_|
                _|                  _|_|_|_|  _|    _|
                _|_|_|_|  _|    _|  _|_|_|_|  _|    _|
                _|    _|  _|    _|        _|  _|_|_|_|
                _|_|_|_|  _|_|_|_|  _|_|_|_|  _|    _|

                       G O L D E N   S T A T E


=-=-=-=-=-=-=-=-=-=-=-=-=-=-=-=-=-=-=-=-=-=-=-=-=-=-=-=-=-=-=-=-=-=-=-
X5 - power chord
 > - pull off w/o hitting first note
 ^ - (after note) bend up, but not as far as the next fret
 ^ - (after chord) octave higher than normal
 ~ - (after chord) hang on and fade out
 ~ - (after note) vibrado
 / - (after note) slide up
 \ - (after note) slide down
 r - release note
 h - hammer-on note
 p - pull off note
() - (containing chords) will fit but might not actually be played
() - (containing notes) note that are faint or unclear
 * - (behind a "Riff") slight varriation to the riff
______________________________________________________________________
__________SOLUTIONS___________________________________________________


Riff A:
e|--------------|
B|--------------|
G|------9-------|
D|-9h11---p11>9-|
A|--------------|
E|--------------|

Intro:
Riff A (23x)


Solo: (play around w/ the slide, email me for the rest)
   B5           F#5          B5           F#5     B5  F#5
e|-------------------------------------------------------|
B|-------------------------------------------/10~...-----|
G|-------------------------------------------------------|
D|-------------------------------------------------------|
A|----2-3-2-0-2-----------------2-3-2-0-2----------------|
E|-----------------2-3-2-0-2-----------------------------|


Solo: (play around w/ the slide, email me for the rest)
   B5           F#5          B5           F#5     B5  F#5
e|-------------------------------------------------------|
B|-------------------------------------------/10~...-----|
G|-------------------------------------------------------|
D|-------------------------------------------------------|
A|----2-3-2-0-2-----------------2-3-2-0-2----------------|
E|-----------------2-3-2-0-2-----------------------------|


______________________________________________________________________
__________HEADFUL OF GHOSTS___________________________________________


Intro Riff:
   C5
e|----------------------------------------------------|
B|----------------------------------------------------|
G|-10-10-9--10-10-9--10-10-9--10-10-9--10-10-9--10-10-| 2
D|-10-10-10-10-10-10-10-10-10-10-10-10-10-10-10-10-10-| X
A|-8--8--8--8--8--8--8--8--8--8--8--8--8--8--8--8--8--|
E|----------------------------------------------------|

(Intro is played throughout this part)
Riff A:  (many times they'll play the F also an octave higher)
   F5              C5     D5              A#5
e|----------------------------------------------|
B|----------------------------------------------|
G|-----------------5------7---------------3-----|
D|-3---------------5------7---------------3-----|
A|-3---------------3------5---------------1-----|
E|-1--------------------------------------------|

e|-17-18-17-13-----18-13--17-18-17-13-----18-13-|
B|-------------13---------------------13--------|
G|----------------------------------------------|
D|----------------------------------------------|
A|----------------------------------------------|
E|----------------------------------------------|

Chorus Riff:
e|-------------|
B|-------------|
G|-10-9-7-9h10-|
D|-------------|
A|-------------|
E|-------------|

   A5 C5
e|------|
B|------|
G|----5-|
D|-7--5-|
A|-7--3-|
E|-5----|


A5     G#5 A5
e|--------------------|
B|--------------------|
G|--------------------|
D|-7-7-7---6--7---7-7-|
A|-7-7-7---6--7---7-7-|
E|-5-5-5---4--5---5-5-|

   F5 A5  (2nd guitar simultaneously plays chords octave higher)
e|------|
B|------|
G|------|
D|-3--7-|
A|-3--7-|
E|-1--5-|

A5 G#5/A5

F5 A5

______________________________________________________________________
__________THE PEOPLE THAT WE LOVE_____________________________________


Riff A:
e|--0--0--0--0--0--0--0--0--0--0--0--0---8---|
B|-10-10-10-10-10-10-10-10-10-10-10-10-10-10-|
G|-----8--8--8--8--8--8--8--8--8--8--8-------|
D|-------------------------------------------|
A|-------------------------------------------|
E|-------------------------------------------|

Riff B:
   A5  E5  C5  A5
e|---------------------|
B|---------------------|
G|-2-2-----5-5-2-0-2---|
D|-2-2-2-2-5-5-2-0-2---|
A|-0-0-2-2-3-3-0-0-0---|
E|-----0-0-------------|

Riff C:
e|-0-0-0-0-0-0-0-0-0-0-0-0-0-0-0-0-|
B|-4-4-4-4-4-4-4-4-5-5-5-5-5-5-5-5-|
G|---------------------------------|
D|---------------------------------|
A|---------------------------------|
E|---------------------------------|

Intro: Riff A     (2x)
       Riff A & B (1x)
       Riff A     (1x)
       Riff A & B (4x)


Solo: A5 E5 C5 A5 (4x) (played with A slide)
e|-11/12-----10/11----------------------------------|
B|--------------------------------------------------|
G|--------------------------------------------------|
D|---------------------9-10-9-10-12----9-10-9-10-12-|
A|-------12~-------12~--------------12~-------------|
E|--------------------------------------------------|

______________________________________________________________________
__________SUPERMAN____________________________________________________


_______________________
lead guitar:           |
e|---------------|     |
B|---------------|     |
G|---------------|     |
D|----9-7-9-5-7--|     |
A|---------------|     |
E|--7------------|     |
                       | -Riff A
rhythm guitar:         |
e|---------------|     |
B|---------------|     |
G|--4------------|     |
D|--4-------5----|     |
A|--2-------5----|     |
E|----------3----|     |
_______________________|
Intro: Riff A (4x)

--------------------------------------------------------------------
________FUGITIVE____________________________________________________


[ Tab from: http://www.guitartabs.cc/tabs/b/bush/golden_state_album_tab.html ]
   F#5 B5  D5   F/#5
e|-------------------|
B|-------------------|
G|-----4---7---10/11-|
D|-4---4---7---10/11-|
A|-4---2---5----8/9--|
E|-2-----------------|

Intro:

F#5 D5 (2x)

SOLO: (uses a slide accompanied by a wha-petal)

e|-----------------------------------------------------------------
B|--------------------------------------14---14h15-14h15-14--------
G|-13/14---13---14-13-14-13--13-11---------------------------------
D|-----------------------------------14----------------------14-16-
A|-----------------------------------------------------------------
E|-----------------------------------------------------------------

  ----------|
  ----------|
  ----------|
  -16\14/16-|
  ----------|
  ----------|

----------------------------------------------------------------------
__________HURRICANE___________________________________________________


 Riff A:                    Riff B:     Riff C:
e|-----------------------| e|--------| e|-----------|
B|-----------------------| B|-10/11~-| B|-----------|
G|-----------------------| G|--------| G|-----9---7-|
D|-0h2--0h2-2--0h2p0h2-2-| D|--------| D|-8h9---8---|
A|-0h2--0h2-2--0h2p0h2-2-| A|--------| A|-----------|
D|-0h2--0h2-2--0h2p0h2-2-| D|--------| D|-----------|

                                       e|-----------|
                                       B|-----------|
                                       G|-----------|
                                       D|---------0-|
                                       A|---------0-|
                                       D|---------0-|



----------------------------------------------------------------------
__________INFLATABLE__________________________________________________


Chords:
    Em7  Em  C   A  Am   F  F#m  G   D
e|---0---0---0---0---0---1---2---3---2---|
B|---3---0---1---2---1---1---2---3---3---|
G|---0---0---0---2---2---2---2---0---2---|
D|---2---2---2---2---2---3---4---0---0---|
A|---2---2---3---0---0---3---4---x---x---|
E|---0---0---x---x---x---1---2---3---x---|

 R1:
  (D)        (F#m)        (A)         (G)
e|---5---5---5---5---5---5---5---5---5---3---3---3-
B|-----7---7-------7---7-------5---5-------3---3---
G|-7-----------------------------------------------
D|-------------------------------------------------
A|-------------------------------------------------
E|-------------------------------------------------
 R2:
 (D)       (F#m)        (A)         (G)
e|-5---5---5---5---5---5---5---5---5---7---7---7---
B|---7---7-------7---7-------5---5-------8---8-----
G|-------------------------------------------------
D|-------------------------------------------------
A|-------------------------------------------------
E|-------------------------------------------------


Solo:
  (D)               (F#m)      (A)                 (G)
e|-----------------------------------------------------|
B|----------------------------3-3-3p2-3-3/5------------|
G|-2--2-2-2p0-------------0-2--------------------------|
D|------------4p5h4-5-4-4-------------------2-2-2-2-9^-|
A|-----------------------------------------------------|
E|-----------------------------------------------------|


----------------------------------------------------------------------
__________REASONS_____________________________________________________


Riff A:
e|--------------------------------------------|
B|--------------------------------------------|
G|--------------------------------------------|
D|--------------------------------------------|
A|-0~-2p0-2p0-2p0-2p0-2p0-2p0-2p0-2p0-2p0-2-0-|
E|--------------------------------------------|

Intro:
Riff A (4x)  B5 G5 B5 G5


______________________________________________________________________
__________LAND OF THE LIVING__________________________________________


Intro:
   G5                      B5          F#5 G5 A5
e|-----------------------------|      |------------|
B|-----------------------------|      |------------|
G|----12-12-12----12-12-12-----| (2x) |------------|
D|-5-(10)------5-(10)------9-9-|      |-4---5--7-7-|
A|-5-(10)------5-(10)------9-9-|      |-4---5--7-7-|
E|-3-----------3-----------7-7-|      |-2---3--5-5-|

Riff 1:
  F#5 D5 A5
e|-----------|   Riff 2:
B|-----------|     F#5 G5 A5   F#5 G5 A5
G|----7------|   e|-----------|-------------|
D|-4--7--7---|   B|-----------|-------------|
A|-4--5--7---|   G|-----------|-11-12-14-14-| (these two parts are
E|-2-----5---|   D|-4--5--7-7-|-11-12-14-14-|  played simultaneously)
                 A|-4--5--7-7-|-9--10-12-12-|
                 E|-2--3--5-5-|-------------|


______________________________________________________________________
__________MY ENGINE IS WITH YOU_______________________________________


Intro:
e|--------------------------------|
B|--------------------------------|
G|-5h7---5h7---5h7---5h7--5h7-5h7-|
D|--------------------------------|
A|--------------------------------|
E|--------------------------------|

Verse/Chorus/Whatever: (just the chords)
   D5      F5  G5
e|-----------------|
B|-----------------|
G|-----------------|
D|-0---0---3---5---|
A|-0---0---3---5---|
D|-0---0---3---5---|

______________________________________________________________________
__________OUT OF THIS WORLD___________________________________________


?5 - can't figure out what the frikin' chord is (either A or B)

Chords: (on guitar, originally piano)
    G5  A5  B5
e|-(3)-(5)-(7)-|
B|-(3)-(5)-(7)-|
G|-(4)-(6)-(8)-|
D|--5---7---9--|
A|--5---7---9--|
E|--3---5---7--|

Intro:

e|---9-|
B|-7---|
G|-----| this is done about 20x in the begining
D|-----|  and is done throughout the song
A|-----|
E|-----|


Solo:

e|--------------------------------------------------------|
B|--------------------------------------------------------|
G|--------------------------------------------------------|
D|-9h11-12-11-9--9h11-12-11-9--9h11-12-11-9--9h11-12-11-9-|
A|--------------------------------------------------------|
E|--------------------------------------------------------|


----------------------------------------------------------------------
__________FLOAT_______________________________________________________


Intro:
e|-------------------------------|
B|-------3---2---0---------------|
G|-----------------2-0---0-------| 2 ..then 2 more times with drums
D|-----0---0---0-------4---4-2-4-| X    and another guitar playing D
A|---4---------------------------|
D|-0-----------------------------|


Superjoe45@yahoo.com / SpeedRacer497@hotmail.com

*email me if there are any unfinished parts you want tabbed
Comments