Bush - Glycerine Acoustic Chords & Tabs

 

Glycerine Acoustic Chords & Tabs

Bush Chords & Tabs

Version: 1 Type: Tab 0 ratings
1 star 2 stars 3 stars 4 stars 5 stars
comments

Glycerine Acoustic Tab

##################################################################################
# This file is the author's own work and represents their interpretation of the  #
# song. You may only use this file for private study, scholarship, or research.  #
##################################################################################

Bush - Glyserine

This is the acoustic version gavin did on howard stern
  Intro
e|----------------------------------------------------------
b|----------------------------------------------------------
g|---------------5-5-5-5-5-5----7-7-7-7-7-7----3-3-3--------
d|3-3-3-3-3-3----5-5-5-5-5-5----7-7-7-7-7-7----3-3---3------
a|3-3-3-3-3-3----3-3-3-3-3-3----5-5-5-5-5-5----1-1----------
E|1-1-1-1-1-1-----------------------------------------------
   Let ring, also, there is palm muting all over, its easy
   enough to figure out though
[ Tab from: http://www.guitartabs.cc/tabs/b/bush/glycerine_acoustic_tab.html ]
e|-----------------------------------------
b|-----------------------------------------
g|---------/5-5-5----/7-7-7------/3-3-3----
d|3-3-3----/5-5---5--/7-7---7----/3-3---3--
a|3-3---3--/3-3------/5-5--------/1-1------
E|1-1--------------------------------------
    Quickly slide to each note

  Verse
e|------------------------------------------------
b|------------------------------------------------
g|----------/5-5-5--5---/7-7-7--7----/3-3-3--3----
d|3-3-3--3--/5-5-5-5----/7-7-7-7-----/3-3-3-3-----
a|3-3-3-3---/3-3-3------/5-5-5-------/1-1-1-------
E|1-1-1-------------------------------------------
  Let the chord ring as u play the single notes

  Chorus
e|-------------------------------------------
b|-------------------------------------------
g|-------------5-5-5-5-5---3-3-3-3-3---------
d|3-3-3-3-3----5-5-5-5-5---3-3-3-3-3---------
a|3-3-3-3-3----3-3-3-3-3---1-1-1-1-1---------
E|1-1-1-1-1----------------------------------
               Quickly
Comments