Bush - Float Chords & Tabs

 

Float Chords & Tabs

Bush Chords & Tabs

Version: 3 Type: Tab 0 ratings
1 star 2 stars 3 stars 4 stars 5 stars
comments

Float Tab

   
Now the last time this was tabbed, somebody tried, it was good and close, but this is how it's done

This tab comes with both guitars, i would write a drum tab to this song, but i suck at those.

If you are just starting a band i highly recomend this song, it is really easy to play and a bass is optional.


******     If you want bass tabs, take any note        *******
******from each of the power chords, at the right time *******

Tuning=Standard e b g d a e
not dropped D

intro

Lead:
E|------------------------------------------|
B|------------------------------------------|
G|-------6-------4--------------------------|
D|---------0--------7-7-4-5-4---4-----------|
A|-5-4-5----------------------7-------------|
E|------------------------------------------|

Play four times


second guitar (play this after intro and let ring, enter with drums and bass) (d power chord)
E|--------------------------------------------|
B|--------------------------------------------|
G|-------7------------------------------------|
D|-------7------------------------------------|
A|-------5------------------------------------|
E|--------------------------------------------|


(this has to be second guitar, the distortion wont match up)

   It's a beutiful world, everyone's insane (f# power chord)
E|--------------------------------------------|
B|--------------------------------------------|
G|--------------------------------------------|
D|-----4----4---------------4----4------------|
A|-----4----4---------------4----4------------|
E|-----2----2---------------2----2------------|



    Either you swim or either you fade (b power chord)
E|--------------------------------------------|
B|--------------------------------------------|
G|---4----4-----------------4----4------------|
D|---4----4-----------------4----4------------|
A|---2----2-----------------2----2------------|
E|--------------------------------------------|

Pre Chorus:

   All of this time (A power chord)
E|--------------------------------------------|
B|--------------------------------------------|
G|--------------------------------------------|
D|-7-7-7-7------------------------------------|
A|-7-7-7-7------------------------------------|
E|-5-5-5-5------------------------------------|


    Im just trying to reach you (f# and b power chords)
E|--------------------------------------------|
B|--------------------------------------------|
G|--------------------------4-4-4-------------|
D|--4-4-4-------------------4-4-4-------------|
A|--4-4-4-------------------2-2-2-------------|
E|--2-2-2-------------------------------------|
[ Tab from: http://www.guitartabs.cc/tabs/b/bush/float_tab_ver_3.html ]
   Feel the Rain traffic (g power chord)

E|--------------------------------------------|
B|--------------------------------------------|
G|--------------------------------------------|
D|-5-5-5--------------------------------------|
A|-5-5-5--------------------------------------|
E|-3-3-3--------------------------------------|

Chorus:

         As you Float
E|--------------------------------------------|
B|--------------------------------------------|
G|-7---7--------------------------------------|
D|-7---7--------------------------------------|
A|-5---5--------------------------------------|
E|--------------------------------------------|


    Into space.....
E|--------------------------------------------|
B|--------------------------------------------|
G|---4---4------------------------------------|
D|---4---4------------------------------------|
A|---2---2------------------------------------|
E|--------------------------------------------|


Then it goes back to the verses with a small exception

(these extra notes may be played on another guitar)
       Im fragile to the waves 
E|--------------------------------------------|
B|--------------------------------------------|
G|--------------5-5-5-5-----------------------|
D|-----4----4---------------4----4------------|
A|-----4----4---------------4----4------------|
E|-----2----2---------------2----2------------|


    When I am with you i feel a little brave
E|--------------------------------------------|
B|--------------------------------------------|
G|---4----4-----------------4----4------------|
D|---4----4-----------------4----4------------|
A|---2----2-----------------2----2------------|
E|--------------------------------------------|

Bridge
First guitar
E|-------------------0-0-0-0-0-0-0-0-0-0-2h3-2h3-2h3(continue through)
B|-2-2-2-2-2-2-2-2-2-------------------------------------------|
G|-------------------------------------------------------------|
D|-------------------------------------------------------------|
A|-------------------------------------------------------------|
E|-------------------------------------------------------------|



Second guitar
(just strum this chord through the whole thing)

(power chord d)
E|--------------------------------------------|
B|--------------------------------------------|
G|--7-----7------7----------------------------|
D|--7-----7------7----------------------------|
A|--5-----5------5----------------------------|
E|--------------------------------------------|


Then you play the chorus twice more and that's the whole song

If you cant play this song or something that vaguley resembles it, you suck.

Tabbed By Warm_Machine


Comments