Bush - Comedown Chords & Tabs

 

Bush Chords & Tabs

Version: 1 Type: Tab 1 rating
1 star 2 stars 3 stars 4 stars 5 stars
comments

Comedown Tab

   
##################################################################################
# This file is the author's own work and represents their interpretation of the  #
# song. You may only use this file for private study, scholarship, or research.  #
##################################################################################

Artist:  Bush
Song:   Comedown
Tuning: Standard (EADGBE)
Tabbed By: Kevin Zmetra



Intro: bass, after about three times play this:
[-----------------------natural-harmonics-----------------------]  
||--------------------------------------------------------------------||  2x
||--------------------------------------------------------------------||       Riff A
||*--7--------------7---------------7----------------7------------*||
||*-----7--7----------7--7-------------7--7-----------7--7------*||
||--------------------------------------------------------------------||
||--------------------------------------------------------------------||

  2x
||--------------------------------------------||------------------------------------------------------------------------------|
||--------------------------------------------||------------------------------------------------------------------------------|
||*-------------------------9--9----7--7--*||---------------------------------------------------------------9-9-9-9-9-9-|
||*--7h9---9----9\--9\-------------------*||------7h9--9--9--9--9\-----7h9--9--9\----7h9---9---9\------------------|
||--------------------------------------------||------------------------------------------------------------------------------|
||--------------------------------------------||------------------------------------------------------------------------------|


|---------------------------------------------||-------------------||
|---------------------------------------------||-------------------||
|-9\7---7---7---9---9p7----7--9---9p7--||*--7h9p7h9p--*||
|---------------------------------------------||*----------------*||
|---------------------------------------------||-------------------||
|---------------------------------------------||-------------------||


||------------0------------0-------------0----------------0----||   2x
||------------0------------0-------------0----------------0----||        Riff B
||*------------------------------------------------------------*||
||*---9-------------7------------4--------------5------------*||
||-----9-------------7------------4--------------5-------------||
||-----7-------------5------------2--------------3-------------||

First Verse

No one knows, never will mostly me but mostly you, what do you say what do you do, when it all comes down
|----------------------------------------------------------------------------------------------------------------------------|
|----------------------------------------------------------------------------------------------------------------------------|
|----------------------------------------------------------------------------------------------------------------------------|
|-9---------7------------4----------------5-----------------9--------------7-----------------4-------------5-------------|
|-9---------7------------4----------------5-----------------9--------------7-----------------4-------------5-------------|
|-7---------5------------2----------------3-----------------7--------------5-----------------2-------------3-------------|

Riff C
Chorus:
[ Tab from: http://www.guitartabs.cc/tabs/b/bush/comedown_tab.html ]
||------------------------------------------------------------------------------------------------------||
||------------------------------------------------------------------------------------------------------||
||*---7----------------------------------------7-----------------------------------9^11------------*||
||*---7---------7------------5----------------7--------7-------------5-----------------------------*||
||----5---------7------------5----------------5--------7-------------5-------------------------------||
||---------------5------------3-------------------------5-------------3-------------------------------||

|-------------------------| Riff D
|-------------------------|
|-------------------------|
|---------------------9\--|
|---7\4--------------9\--|
|-----------2/3------7\--|


Second Verse



Repeat Chorus  w/o  Riff D



Solo  (w/ chorus)   “shoot up”
|----------------------------------------------------------------------------------------------------------------------------|
|----------------------------------------------------------------------------------------------------------------------------|
|---------------12-----11------------------12----14------11---12----11----12---11----12----11---12---------------|
|--------12------------------------12--------------------------------------------------------------------------------------|
|----------------------------------------------------------------------------------------------------------------------------|
|----------------------------------------------------------------------------------------------------------------------------|

      “shoot up”                “shoot up”                   “your high______”
|--------------------------------------------------------------------------------------|
|--------------------------------------------------------------------------------------|
|---12----14---12----14----12----14----12---14----16---14---16----14-------|
|--------------------------------------------------------------------------------------|
|--------------------------------------------------------------------------------------|
|--------------------------------------------------------------------------------------|

      [---feedback---]
|----------------------------------------------------------------------------------------------------------------------------|
|----------------------------------------------------------------------------------------------------------------------------|
|-----14-----13\11---11----13----14----13---13-------9-------7~~~~~~~~~~~~~~~~~~~~~~-------------------|
|----------------------------------------------------------------------------------------------------------------9\----------|
|----------------------------------------------------------------------------------------------------------------9\----------|
|----------------------------------------------------------------------------------------------------------------7\----------|


Third Verse:

Love and hate, get it wrong      she cut me right back down to size
|----------------------------------------------------------------------------------------------------------------------------|
|----------------------------------------------------------------------------------------------------------------------------|
|----------------------------------------------------------------------------------------------------------------------------|
|--------------------------------------------------------------------------9\------------------------------------------------|
|--------------------------------------------------------------------------9\------------------------------------------------|
|--------------------------------------------------------------------------7\------------------------------------------------|


 end
Comments