Bush - Comedown Chords & Tabs

 

Comedown Chords & Tabs

Bush Chords & Tabs

Version: 4 Type: Bass Tab 0 ratings
1 star 2 stars 3 stars 4 stars 5 stars
comments

Comedown Bass Tab

Bush
Comedown

Intro
G-----------     G---------------------|
D-----00----     D---------------------| x2
A-2-02--202- x28 A-2~-0~---------------|
E--2--------     E------2--2--2--3--3--|

Verse 1
G-----------|
D-----00----|
A-2-02--202-| x16
E--2--------|

Chorus 1
G---------|
D---------|
A-5~------| x4
E---5~-3~-|

Bridge
G--------------------|
D--------------------|
A-2~-0~--------------|
E------2--2--2--3--3-|

Rest
[ Tab from: http://www.guitartabs.cc/tabs/b/bush/comedown_btab_ver_4.html ]
Verse 2
G-----------|
D-----00----|
A-2-02--202-| x20
E--2--------|

Chorus 2
G---------|
D---------|
A-5~------| x4
E---5~-3~-|

Solo
G-----------     ----------|
D-----00----     ----------|
A-2-02--202- x12 --2-rest--|
E--2--------     ----------|

Verse 3
G-----------|
D-----00----|
A-2-02--202-| x16
E--2--------|

Chorus
G---------|
D---------|
A-5~------| x4
E---5~-3~-|

Outro
G---------    -----|
D---------    -----|
A-5~------ x8 --5--|
E---5~-3~-    -----|
Comments