Bush - Comedown Chords & Tabs

 

Comedown Chords & Tabs

Bush Chords & Tabs

Version: 1 Type: Bass Tab 0 ratings
1 star 2 stars 3 stars 4 stars 5 stars
comments

Comedown Bass Tab

   
Bush - Comedown
from Sixteen Stone
Retabbed and Completed By: David Parent   david_parent@yahoo.com

I noticed that there were many different versions of this tab, and none of them
sounded correct to me. They were close, though. I made my own, and I think it
sounds most correct, but I not an expert. I am a bit of a perfectionist, and
I hate when people don include the number of repeats, so I added those too.
Choose for yourselves which version you think is best, but this is my opinion:

Intro               3x                  4x
|-|-------------------|-----------------|-|
|*|*---------0-0-----*|-----------0-----|*|
|*|*-2---0-2-----2-0-*|-2---0-2-2---2-0-|*|
|-|----2--------------|---2-------------|-|
                 11x
|-------------------|-----------------|
|*---------0-0-----*|-----------0-----|
|*-2---0-2-----2-0-*|-2---0-2-2---2-0-|
|----2--------------|---2-------------|
                    3x                  2x
|-|-------------------|-----------------|-|
|*|*---------0-0-----*|-----------0-----|*|
|*|*-2---0-2-----2-0-*|-2---0-2-2---2-0-|*|
|-|----2--------------|---2-------------|-|

Verse               3x                  4x
|-|-------------------|-----------------|-|
|*|*---------0-0-----*|-----------0-----|*|
|*|*-2---0-2-----2-0-*|-2---0-2-2---2-0-|*|
|-|----2--------------|---2-------------|-|
[ Tab from: http://www.guitartabs.cc/tabs/b/bush/comedown_btab.html ]
Chorus                                                  2x4x
|-|-----------------|-----------------|-------------------|-|
|*|-----------------|-----------------|*-----------------*|*|
|*|-5-5-5-5-5-5-5-5-|-----------------|*-----------------*|*|
|-|-----------------|-5-5-5-5-5-5-5-5-|--3-3-3-3-3-3-3-3--|-|
                  3x
|-------------------|---------|
|*---------0-0-----*|---------|
|*-2---0-2-----2-0-*|-2---0-2-|
|----2--------------|---2-----|

Verse            11x
|-------------------|-----------------|
|*---------0-0-----*|-----------0-----|
|*-2---0-2-----2-0-*|-2---0-2-2---2-0-|
|----2--------------|---2-------------|
                    3x                  2x
|-|-------------------|-----------------|-|
|*|*---------0-0-----*|-----------0-----|*|
|*|*-2---0-2-----2-0-*|-2---0-2-2---2-0-|*|
|-|----2--------------|---2-------------|-|

Repeat Chorus

There some weird variations here of the main verse riff that I can figure
out. Sorry. It starts at 3:06 and ends at about 3:30.

Verse               3x                  4x
|-|-------------------|-----------------|-|
|*|*---------0-0-----*|-----------0-----|*|
|*|*-2---0-2-----2-0-*|-2---0-2-2---2-0-|*|
|-|----2--------------|---2-------------|-|

Repeat Chorus 10x instead of 4x and fade out

Here the other three versions, I want to give them credit since I used part
of each of theirs. The Chorus was the same as mine in each version:

Intro & bridge:
            x3                x1
G:-||-----------------|-----------------||
D:-||---------0-0-----|---------2-2-0---||
A:-||-2-0-2-2-----2-2-|-2-0-2-2-------2-||
E:-||-----------------|-----------------||
By: Jeff Szymona     jszymon@wilkes.edu

G-------------
D-------------
A2-0-2-5-5-2-0
E-2-----------
By: Rooptroop@aol.com

G---------------------
D:----------0-0------:
A:--2---0-2------2-0-:
E----2----------------
By: Mark Ofenstein     "SCR Corp." 

Comments