Burzum - Black Spell Of Destruction Chords & Tabs

 

Black Spell Of Destruction Chords & Tabs

Burzum Chords & Tabs

Version: 2 Type: Tab 0 ratings
1 star 2 stars 3 stars 4 stars 5 stars
comments

Black Spell Of Destruction Tab

   
Burzum - Black Spell of Destruction
Tabbed by ear by AngelOfLust, Do not take without permission.
Any questions email theillusionist15@yahoo.com

This song is easy, it's obvious what goes where so there you go.
I did this by myself so dont steal it please.
------------------------------------------------------------
Tuning: Standard..


Riff 1:

e|---------------------------------|
B|---------------------------------|
G|-----1-------4-------1-----------|
D|-3-3--3--6-6--6--3-3--3--6-6-5-5-|
A|-3-3---3-6-6---6-3-3---3-6-6-5-5-|
E|-1-1-----4-4-----1-1-----4-4-3-3-|

Riff 2 (twice):

e|----------------------------------------------|
B|----------------------------------------------|
G|--5-5-5-5-5-5---4-5-4---4-5-2---4-5-2---4-5-4-|
D|-3-3-3-3------2-------2-------2-------2-------|
A|----------------------------------------------|
E|----------------------------------------------|

Riff 3:
[ Tab from: http://www.guitartabs.cc/tabs/b/burzum/black_spell_of_destruction_tab_ver_2.html ]
e|-------------------------------------------------|
B|-------------------------------------------------|
G|---5-5---5-5---5---4-5-4---4-5-4---4-5-4---4-5-4-|
D|-3-----3-----3---2-------2-------2-------2-------|
A|-------------------------------------------------|
E|-------------------------------------------------|

Riff 4:

e|-------------------|
B|-------------------|
G|-------------------|
D|-3-3-5-7-7-7-7-7-5-|
A|-3-3-5-7-7-7-7-7-5-|
E|-1-1-3-5-5-5-5-5-3-|

Riff 5 (Alt picked with the occasional high note, not too hard to figure out):

E|-2-3-|
B|-2-3-|
G|-2-3-|
D|-4-5-|
A|-4-5-|
E|-----|

Riff 6:
                                           let 3 ring at end.
e|---------------------------------------------------------------|
B|---------------------------------------------------------------|
G|---6-5-7-6---6-5-7-6---6-5-------6-5---------------------------|
D|-3---------3---------4-----7-6-4-----7-6-3---------------------|
A|---------------------------------------------------------------|
E|---------------------------------------------------------------|
Comments