Burton Cliff - Star Spangled Banner Chords & Tabs

 

Star Spangled Banner Chords & Tabs

Burton Cliff Chords & Tabs

Version: 1 Type: Bass Tab 0 ratings
1 star 2 stars 3 stars 4 stars 5 stars
comments

Star Spangled Banner Bass Tab

Cliff Burton - The Star Spangled Banner
Tab by : Drew Jamieson
creepin@metallica.com

--------------------------------------------/9-7h9p7---------------------------
------------------------------------------------------10-----------------------
-/10--7---7-10---t15r10t15r10t15r10t15r10-----------------7-9-7-9-10-----------
--------8----------------------------------------------------------------------
[ Tab from: http://www.guitartabs.cc/tabs/b/burton_cliff/star_spangled_banner_btab.html ]
----------/9--7-7h9p7----------------------------------------------------------
-----------------------10h12p10--9h10p9h10p9h10p9h10p9--7-9-10^----------------
-10--10---------------------------------------------------------7-9-7-9-10^----
-------------------------------------------------------------------------------

-------------------------------/9-t10r9t12r9t10r9t12r9-------------------------
-----10-10-10-10-9-7-7h9p7-----------------------------10--9h10p9h10p9h10p9----
-10------------------------10--------------------------------------------------
-------------------------------------------------------------------------------

-----------------------------------------------------7-9^-10^-9h10p9 7h9p7-----
--------10-12-14-15-17-t19r17t19r17t19r17--12^--/10----------------------------
-10-10-------------------------------------------------------------------------
----------------------------------------------------------------------------8--    
    
^ = Bend 

Comments