Burnouts - London 19 Chords & Tabs

 

London 19 Chords & Tabs

Burnouts Chords & Tabs

Version: 1 Type: Tab 0 ratings
1 star 2 stars 3 stars 4 stars 5 stars
comments

London 19 Tab

The Burnouts - London, 1969
Submitted By: Ross Ryan
EMail: dumbass_96@hotmail.com
Tabbed By: Chronic The Hemphog (dumbass_96@hotmail.com)

Riff 1

e|---------------------------------------------------------
B|---------------------------------------------------------
G|---------------------------------------------------------
D|---5--------5-----8-------10-----------------------------
A|---------------------------------------------------------
E|-3----3-3-3-----6---6/8-8--------------------------------

Riff 2

e|---------------------------------------------------------
B|---------------------------------------------------------
G|---------------------------------------------------------
D|-5-5-x-x-x-x-5--8-8-8-x-10-10-10-------------------------
A|-5-5-x-x-x-x-5--8-8-8-x-10-10-10-------------------------
E|-3-3-x-x-x-x-3--6-6-6-x-8--8--8--------------------------

Riff 3

e|---------------------------------------------------------
B|---------------------------------------------------------
G|---------------------------------------------------------
D|-5-5--4/5-5--8-8-8-x--10-10-10---------------------------
A|-5-5--4/5-5--8-8-8-x--10-10-10---------------------------
E|-3-3--2/3-3--6-6-6-x--8--8--8----------------------------

Fill 1

e|---------------------------------------------------------
B|---------------------------------------------------------
G|---------------------------------------------------------
D|---------------------------------------3-3--5-5-5-5~~----
A|-5-5-5-5-5-5-5-5-5-5-5-5-5-5-5-5--5-5--1-1--3-3-3-3~~----
E|-3-3-3-3-3-3-3-3-3-3-3-3-3-3-3-3--3-3--------------------
|------------Palm Mute------------|

Riff 4

e|---------------------------------------------------------
B|---------------------------------------------------------
G|---------------------------------------------------------
D|-5-5-x-3-3-----------------------------------------------
A|-3-3-x-1-1--5-3------------------------------------------
E|------------3-1------------------------------------------


Fill 2

e|---------------------------------------------------------
B|---------------------------------------------------------
G|---------------------------------------------------------
D|---------------------------------------------------------
A|-5-5-5-5-5-5-5-5-5-5-5-5-5-5-5-5-5-x---------------------
E|-3-3-3-3-3-3-3-3-3-3-3-3-3-3-3-3-3-x---------------------

Riff 5
[ Tab from: http://www.guitartabs.cc/tabs/b/burnouts/london_19_tab.html ]
e|---------------------------------------------------------
B|---------------------------------------------------------
G|---------------------------------------------------------
D|---------------------------------------------------------
A|-5-5-5-8-10-8--5-5-5-7-8-7-------------------------------
E|-3-3-3-6-8--6--3-3-3-5-6-5-------------------------------

Riff 6

e|---------------------------------------------------------
B|---------------------------------------------------------
G|---------------------------------------------------------
D|---------------------------------------------------------
A|-3-3-3-3-3-3-6-8-6-3---3-3-3-3-3-3--5-6-5-3--------------
E|-1-1-1-1-1-1-4-6-4-1---1-1-1-1-1-1--3-4-3-1-------------- 

Fill 3

e|---------------------------------------------------------
B|---------------------------------------------------------
G|---------------------------------------------------------
D|---------------------------------------------------------
A|-------------------------------------------------10-x-10-
E|-12-12-12-12-12-12-12-12-12-12-12-12-12-12-12-12-8--x-8--

e|---------------------------------------------------------
B|---------------------------------------------------------
G|---------------------------------------------------------
D|---------------------------------------------------------
A|-13~~~---------------------------------------------------
E|-11~~~-11-11-11-11-11-11-11-11-11-11-11-11-11-11-11-11\3-

Solo 1

e|---------------------------------------------------------
B|---------------------------------------------------------
G|---------------------------------------------------------
D|-----------3-5-3------------------------3-5-5-3----------
A|-------3-5-------5-3~~~----------3-5~~~---------5~~~-----
E|-3-3h5---------------------5-3-5---------------------5-3-

e|---------------------------------------------------------
B|---------------------------------------------------------
G|---------------------------------------------------------
D|----------------------11-13-11----------------11-13~~~---
A|----------------11h13----------13-11-11-11-13------------
E|-0~~~-----11h13------------------------------------------

e|---------------------------------------------------------
B|---------------------------------------------------------
G|---------------------------------------------------------
D|-13-11---------------------------------------------------
A|-------13-11-13-------------------------------------2--2-
E|----------------13-11-13~~~-13/0-0-0-0-0-0-0-0-0-0--0--0-

Riff 7

e|---------------------------------------------------------
B|---------------------------------------------------------
G|---------------------------------------------------------
D|---------------------------------------------------------
A|-10-10-10-10-10-10-10-10-10-10-10-10-10-10-10-10--10-10-5
E|-8--8--8--8--8--8--8--8--8--8--8--8--8--8--8--8---8--8--3
 |----------------------Bend----------------------|

Riff 1: 4x
Riff 2: 4x
Riff 3: 2x
Fill 1: 1x
Riff 4: 2x
Fill 2: 1x
Riff 5: 2x
Riff 4: 2x
Fill 3: 1x
Solo 1: 1x
Riff 2: 2x
Riff 7: 1x
Comments