Burning Tree Projekt - Autumn Live Acoustic Chords & Tabs

 

Autumn Live Acoustic Chords & Tabs

Burning Tree Projekt Chords & Tabs

Version: 1 Type: Tab 0 ratings
1 star 2 stars 3 stars 4 stars 5 stars
comments

Autumn Live Acoustic Tab

   
---------------------------------------------------
                       INTRO
Autumn (acoustic) - Burning Tree Projekt (Enik Lin)

 http://www.burningtreeprojekt.com/media/index.php
---------------------------------------------------

Tabbed by: Justin RiRaY 
Email: Pakman7JR@hotmail.com         AIM: BeatPwner

Tuning: 1/2 step down


     INTRO
[ Tab from: http://www.guitartabs.cc/tabs/b/burning_tree_projekt/autumn_live_acoustic_tab.html ]
eb|------2--------2---------2----3p2---2-----------|
Bb|----3--3-3---3--3-3----3--3-3----3-3-3----------|
Gb|--------0--------0---------0------0-------------|
Db|---0--------0---------0-------------------------|
Ab|--2--2-----2--2------3--3-----------------------|
Eb|------------------------------------------------|

eb|------2--------2-----------------5~-------------|
Bb|----3--3-3---3--3-3-------3---------------------|
Gb|--------0--------0------0---0--0----------------|
Db|---0--------0--------0-4------4-----------------|
Ab|--2--2-----2--2---------------------------------|
Eb|------------------------------------------------|



| h  hammer-on
| p  pull-off
| ~  vibrato
Comments