Burning Brides - Rainy Days Chords & Tabs

 

Rainy Days Chords & Tabs

Burning Brides Chords & Tabs

Version: 1 Type: Tab 0 ratings
1 star 2 stars 3 stars 4 stars 5 stars
comments

Rainy Days Tab

“Rainy Days”
Burning Brides

These are the chords.  listen to the song to figure out the strumming.

3 times
[ Tab from: http://www.guitartabs.cc/tabs/b/burning_brides/rainy_days_tab.html ]
E-------------------------------------------------------------------------------
B-------------------------------------------------------------------------------
G------------o--h--6--6-----------------------------------------------------------
D------------o--h--7--7--------------------------------------------------------
A------------o--h--7--7-----------------------------------------------------------
E------------o--h--5--5------------------------------------------------------

Then

E-------------------------------------------------------------------------------
B-------------------------------------------------------------------------------
G---------0--5-----------------------------------------------------------------
D---------0--5------0--5-------------------------------------------------------
A---------0--3------0--5---------------------------------------------------------
E-------------------0--3--------------------------------------------------
Comments