Burning Brides - Heart Full Of Black Chords & Tabs

 

Heart Full Of Black Chords & Tabs

Burning Brides Chords & Tabs

Version: 1 Type: Tab 0 ratings
1 star 2 stars 3 stars 4 stars 5 stars
comments

Heart Full Of Black Tab

Burning Brides - Heart Full of Black

Tabbed by: Jack Klompus
E-mail: twyetts@yahoo.com
Intro
e|------------------------------|
B|------------------------------|
G|------------------------------|
D|-7----------------------------|
A|-7-(hold down)----------------|
E|-5----------------------------|

Pre-Verse
e|-----------------------------|
B|-----------------------------|
G|----------------------7------|
D|-7-------------5------7------|
A|-7-------------5------5------|
E|-5-------------3-------------|
[ Tab from: http://www.guitartabs.cc/tabs/b/burning_brides/heart_full_of_black_tab.html ]
Verse
e|-----------------------------------|
B|-----------------------------------|
G|--------------5--------------------|
D|-7------------5-5----7-----------5-|
A|-7-(let ring)-3-5----7(let ring)-5-|
E|-5--------------3----5-----------3-|

Pre-Chorus
e|------------------------------|
B|------------------------------|
G|------------------------------|
D|-2----------------------------|
A|-2-(repeat)-------------------|
E|-0----------------------------|
"I made a promise by the side of the road.."

Chorus
e|------------------------------|
B|------------------------------|
G|---------------------5--------|
D|--7---------7--------5---5----|
A|--7-------5---5-7----3---5----|
E|--5--5--8----------------3----|

That should be about right. Only things I'm missing are the bridge and the solo really. Thanks, bitches!
Comments