Burnes Roger - Early Autumn Chords & Tabs

 

Early Autumn Chords & Tabs

Burnes Roger Chords & Tabs

Version: 1 Type: Tab 0 ratings
1 star 2 stars 3 stars 4 stars 5 stars
comments

Early Autumn Tab

   
#----------------------------------PLEASE NOTE---------------------------------#
#This file is the author's own work and represents their interpretation of the #
#song. You may only use this file for private study, scholarship, or research. #
#------------------------------------------------------------------------------##
Received: from stack.serpukhov.su ([192.124.172.241]) by post-office.nevada.edu (8.6.4/8.6.4) with ESMTP id EAA01693 for ; Mon, 7 Mar 1994 04:21:19 -0800
Received: from ns.serpukhov.su (ns.serpukhov.su [192.124.172.23]) by stack.serpukhov.su (8.6.2/8.6.5Stack) with SMTP id PAA01458 for ; Mon, 7 Mar 1994 15:20:21 +0300
Received: from venus.iteb.serpukhov.su  by ns.serpukhov.su via SMTP
Received: by venus.iteb.serpukhov.su (MX V3.3 VAX) id 27158; Mon, 07 Mar 1994
          15:18:46 +0300
Date: Mon, 07 Mar 1994 15:18:45 +0300
From: ALEX GRICHENKO 
To: jamesb@nevada.edu
Message-Id: 
Subject: TAB: Early Autumn (R.Burns)

Early Autumn
by Ralph Burns
arranged by Alex Grichenko

Use "slanting" barre to play Xmaj chords.

/  glissando or legato up
\  glissando or legato down
h  hammer on
p  pull off

                            [PART A]
   1 . 2 . 3   .   4   .   ||: 1   .   2   .   3   .   4   .   |
e----------3---4---5---6---||--7---------------7---7-----------|
B----------4---5---6---7---||--8---8-----------8---------------|
G----------5---6---7---8---||--9-------9-------9---------------|
D----------6---7---8---9---||-10----------10--10---------------|
A--------------------------||----------------------------------|
E----------4---5---6---7---||--8-----------------------8-------|

   1   .   2   .   3   .   4   .   |  1   .   2   .   3   .   4   .   |
e--7---8---10--8---7---7-------6---|--5---------------5---5-----------|
B-10--------------10--10-----------|--6---6-----------6---------------|
G--9---------------9--10-----------|--7-------7-------7---------------|
D----------------------------------|--8-----------8---8---------------|
A--9-------------------------------|----------------------------------|
E------------------7-------7-------|--6-----------------------6-------|
[ Tab from: http://www.guitartabs.cc/tabs/b/burnes_roger/early_autumn_tab.html ]
   1   .   2   .   3   .   4   .   |  1   .   2   .   3   .   4   .   |
e--5---6---8---6---5---5-------4---|--3---------------3---3-----------|
B--8---------------8---8-----------|--4---4-----------4---------------|
G--7---------------7---8-----------|--5-------5-------5---------------|
D----------------------------------|--6-----------6---6---------------|
A--7-------------------------------|----------------------------------|
E------------------5-------5-------|--4-----------------------4-------|
                                    ___________________________________
                                   |1.
   1   .   2   .   3   .   4   .   |  1   .   2   .   3   .   4   .   |
e--3---4---6---4---3---3-----------|-----------------10-p8------------|
B--6---------------6---6-----------|------------------8-----8----5-/6-|
G--5---------------5---6------/9---|--9--p7---7-------7---------------|
D----------------------------------|--9-------9-------7---------------|
A--5-------------------------------|--7-------7-------0---------------|
E------------------3-------3-------|--8-------8-----------------------|
 __________________________  _______________________________________
                           ||2.
   1 . 2 . 3   .   4   .  :||  1   .   2   .   3   .      4    .   |
e----------3---4---5---6---||-----------------10--p8h10p8-7--------|
B--5-------4---5---6---7---||------------------8----------7-10p8p7-|
G--5-------5---6---7---8---||--9--p7---7-------7----------7--------|
D--3-------6---7---8---9---||--9-------9-h10---7----------0--------|
A--5-----------------------||--7-------7-------0-------------------|
E----------4---5---6---7---||--8-------8---------------------------|
___________________________________
                                   |[PART B]
   1   .   2   .   3   .   4   .   ||  1   .   2   .   3   .   4   .   |
e----------------------------------||----------------------------------|
B-10--8----------------------------||--5---5---5-------5---5---5-------|
G--9-----9--------------------2--4-||--5---5---5---2---4---4---4---4---|
D-10------10--9----7------/5-------||--3-----------3---3-----------5---|
A---------------10-7---------------||--5-------------------------------|
E--8---------------8---------------||------------------3---------------|

   1   .   2   .   3   .   4   .   |  1   .   2   .   3   .   4   .   |
e------------------7-----------6---|--5--------------------------3----|
B--3---3---3-------7-----------6---|--6-------8--6----5-p3-h4h5-----5-|
G--2---2---2--5--2-6-----------6---|--5-------------5-4---------------|
D--2---------------5-----------5---|--0---------------3---------------|
A--3-------------------------------|----------------------------------|
E----------------------------------|------------------3---------------|

   1   .   2   .   3   .   4   .   |  1   .   2   .   3   .   4   .   |
e----------------------------------|----------------------------------|
B--3-----------------------------0-|------1---1-------3---3---3--1----|
G--4----------4----2---0------2----|------3---3--3--0-2---2---2-----2-|
D--5-------------5-2---------------|------1-----------1---------------|
A--3---------------3---------------|------3---------------------------|
E----------------------------------|------------------1---------------|

   1   .   2   .   3   .   4   .   |  1   .   2   .   3   .   4   .   |
e----------5-------8-----------6---|--9--------------10---------------|
B--------6---------8---------------|-10-------9-------8-------7-------|
G--6-/7------------6---------------|-11------10-------9-------8-------|
D--6-/7----------------------------|----------------------------------|
A------------------6---------------|----------------------------------|
E--6-------------------------------|-10-------9-------8-------7-------|

                                    [PART A3]
   1   .   2   .   3   .   4   .   ||  1   .   2   .   3   .   4   .   |
e--5-------------------------------||--7---------------7---7---8-------|
B--6-------5-------5-------5-p3-h5-||--8---8-----------8-------8-------|
G--7-------6-------5-------4-------||--9-------9-------9-------7-------|
D------------------4-------3-------||-10----------10--10-------7-------|
A------------------5---------------||--------------------------7-------|
E--6-------5---------------3-------||--8---------------8---------------|

   1   .   2   .   3   .   4   .   |  1   .   2   .   3   .   4   .   |
e--7---8--10---8---7---7-----------|--5---------------5---------------|
B--7--------------10--10-------9---|--6---6-----------6---5---3---1---|
G--9---------------9--10-------7---|--7-------7-------7---5---3---2---|
D------------------------------6---|--8-----------8---8---------------|
A--------------------------7-------|----------------------------------|
E--8---------------7---------------|--6---------------6---5---3---1---|

   1   .   2   .   3   .   4   .   |  1   .   2   .   3   .   4   .   |
e--5---6---8---6---5---5-----------|--3---------------3---3---4-------|
B--5---------------8---8-------7---|--4---4-----------4-------4-------|
G--7---------------7---8-------5---|--5-------5-------5-------3-------|
D------------------------------4---|--6-----------6---6-------3-------|
A--------------------------5-------|--------------------------3-------|
E--6---------------5---------------|--4---------------4---------------|

   1   .   2   .   3   .   4   .   |  1   .   2   .   3   .   4   .   |
e--3---4---6---4---3---3-----------|----------------------------------|
B--3---------------6---6-------5\--|--3-------------------------------|
G--5---------------5---6-----------|--2---5---5-----------------------|
D----------------------------------|--2-------2-----------------------|
A----------------------------------|--3-------3-----------------------|
E--4---------------3---------------|----------------------------------|

   1   .   2   .   3   .   4   .   |  1   .   2   .   3   .   4   .   ||
e--3---4---5---6---7---8---9--10---|-11--------------11---------------||
B--4---5---6---7---8---9--10--11---|-12----------------7--------------||
G--5---6---7---8---9--10--11--12---|-13-----------------8-------------||
D--6---7---8---9--10--11--12--13---|-14------------------9------------||
A----------------------------------|----------------------7-----------||
E--4---5---6---7---8---9--10--11---|-12--------------------0----------||

Comments