Burn The Priest - Chronic Auditory Hallucination Chords & Tabs

 

Chronic Auditory Hallucination Chords & Tabs

Burn The Priest Chords & Tabs

Version: 1 Type: Tab 0 ratings
1 star 2 stars 3 stars 4 stars 5 stars
comments

Chronic Auditory Hallucination Tab

   
Burn the Priest - Chronic Auditory Hallucination
Tabbed By: Pope Scope
Email: kylepope07@hotmail.com

Tuning: Drop D (D A D G B E)

I tabbed this song myself, so if you feel as if you must copy it onto another site, 
please give me credit. You should be able to figure out the timing by listening to 
the song.

E|----------------------------------------------------------------||
B|----------------------------------------------------------------||
G|----------------------------------------------------------------||
D|----------------------------------------------------------------||
A|5-----4-----3-2-1-0-1-2-----------------------------------------||
D|--4-1---3-0-3-2-1-0-1-2-----------------------------------------||
PM  . .   . . . . . . . . 

E|----------------------------------------------------------------||
B|----------------------------------------------------------------||
G|----------------------------------------------------------------||
D|----------------------------------------------------------------||
A|1h3---------1h3---------1h3-----1---3---4p3-1h3-----------------||
D|1h3-0-0-0-0-1h3-0-0-0-0-1h3-0-0-1-0-3-0-4p3-1h3-----------------||
PM    . . . .     . . . .     . .   .   . 

E|----------------------------------------------------------------||
B|----------------------------------------------------------------||
G|----------------------------------------------------------------||
D|----------------------------------------------------------------||
A|1h3---------1h3---------5-----4-----3-2-1-0-1-2-----------------||
D|1h3-0-0-0-0-1h3-0-0-0-0---4-1---3-0-3-2-1-0-1-2-----------------||
PM    . . . .     . . . .   . .   . . . . . . . . 

E|----------------------------------------------------------------||
B|----------------------------------------------------------------||
G|----------------------------------------------------------------||
D|----------------------------------------------------------------||
A|1h3---------1h3---------1h3-----1---3---4-3-1-------------------||
D|1h3-0-0-0-0-1h3-0-0-0-0-1h3-0-0-1-0-3-0-4-3-1-0-----------------||
PM    . . . .     . . . .     . .   .   .       .

E|----------------------------------------------------------------||
B|----------------------------------------------------------------||
G|----------------------------------------------------------------||
D|----------------------------------------------------------------||
A|1h3---------1h3---------5-----4-----3-2-1-0-1-2-----------------||
D|1h3-0-0-0-0-1h3-0-0-0-0---4-1---3-0-3-2-1-0-1-2-----------------||
PM    . . . .     . . . .   . .   . . . . . . . . 

E|----------------------------------------------------------------||
B|----------------------------------------------------------------||
G|----------------------------------------------------------------||
D|----------------------------------------------------------------||
A|5-----4-----3-2-1-0-1-2-5-----4-----3-2-1-0-1-2-----------------||
D|--4-1---3-0-3-2-1-0-1-2---4-1---3-0-3-2-1-0-1-2-----------------||
PM  . .   . . . . . . . . . . . . . . . . . . . . 

E|----------------------------------------------------------------||
B|----------------------------------------------------------------||
G|----------------------------------------------------------------||
D|----------------------------------------------------------------||
A|------1---3-------1---3-------1---3-------1---3-----------------||
D|0-0-0-1-0-3-0-0-0-1-0-3-0-0-0-1-0-3-0-0-0-1-0-3-----------------||
PM. . .   .   . . .   .   . . .   .   . . .   .

E|----------------------------------------------------------------||
B|----------------------------------------------------------------||
G|----------------------------------------------------------------||
D|----------------------------------------------------------------||
A|0-0-0-------0-0-0-------0-0-0-------0-0-0-----------------------||
D|0-0-0-------0-0-0-------0-0-0-------0-0-0-----------------------||
PM. . .       . . .       . . .       . . . 

E|----------------------------------------------------------------||
B|----------------------------------------------------------------||
G|----------------------------------------------------------------||
D|----------------------------------------------------------------||
A|------5-----6-3-5-------5-----------3---------------------------||
D|0-0-0---4-1-------3-0-0---4-1-6-3-5---4-1-----------------------||
PM. . .   . .       . . .   . .         . .

E|----------------------------------------------------------------||
B|----------------------------------------------------------------||
G|----------------------------------------------------------------||
D|----------------------------------------------------------------||
A|0-0-0-------0-0-0-------0-0-0-------0-0-0-----------------------||
D|0-0-0-------0-0-0-------0-0-0-------0-0-0-----------------------||
PM. . .       . . .       . . .       . . . 
[ Tab from: http://www.guitartabs.cc/tabs/b/burn_the_priest/chronic_auditory_hallucination_tab.html ]
E|----------------------------------------------------------------||
B|----------------------------------------------------------------||
G|----------------------------------------------------------------||
D|----------------------------------------------------------------||
A|------1---3-------1---3-------1---3-------1---3-----------------||
D|0-0-0-1-0-3-0-0-0-1-0-3-0-0-0-1-0-3-0-0-0-1-0-3-----------------||
PM. . .   .   . . .   .   . . .   .   . . .   .

E|----------------------------------------------------------------||
B|----------------------------------------------------------------||
G|----------------------------------------------------------------||
D|----------------------------------------------------------------||
A|0-0-0-------0-0-0-------0-0-0-------0-0-0-----------------------||
D|0-0-0-------0-0-0-------0-0-0-------0-0-0-----------------------||
PM. . .       . . .       . . .       . . . 

E|----------------------------------------------------------------||
B|----------------------------------------------------------------||
G|----------------------------------------------------------------||
D|----------------------------------------------------------------||
A|------5-----6-3-5-------5-----------3---------------------------||
D|0-0-0---4-1-------3-0-0---4-1-6-3-5---4-1-----------------------||
PM. . .   . .       . . .   . .         . .

E|----------------------------------------------------------------||
B|----------------------------------------------------------------||
G|----------------------------------------------------------------||
D|----------------------------------------------------------------||
A|0-0-0-3-----0-0-0-2-----0-0-0-1---------------------------------||
D|0-0-0-3-----0-0-0-2-----0-0-0-1---------------------------------||
PM. . .       . . .       . . . 

E|----------------------------------------------------------------||
B|----------------------------------------------------------------||
G|----------------------------------------------------------------||
D|----------------------------------------------------------------||
A|------1---3-------1---3-------1---3-------1---3-----------------||
D|0-0-0-1-0-3-0-0-0-1-0-3-0-0-0-1-0-3-0-0-0-1-0-3-----------------||
PM. . .   .   . . .   .   . . .   .   . . .   .

E|----------------------------------------------------------------||
B|----------------------------------------------------------------||
G|----------------------------------------------------------------||
D|----------------------------------------------------------------||
A|0-0-0-3-----0-0-0-2-----0-0-0-1---------------------------------||
D|0-0-0-3-----0-0-0-2-----0-0-0-1---------------------------------||
PM. . .       . . .       . . . 

E|----------------------------------------------------------------||
B|----------------------------------------------------------------||
G|----------------------------------------------------------------||
D|----------------------------------------------------------------||
A|------1---3-------1---3-------1---3-------1---3-----------------||
D|0-0-0-1-0-3-0-0-0-1-0-3-0-0-0-1-0-3-0-0-0-1-0-3-----------------||
PM. . .   .   . . .   .   . . .   .   . . .   .

E|----------------------------------------------------------------||
B|----------------------------------------------------------------||
G|----------------------------------------------------------------||
D|----------------------------------------------------------------||
A|0-0-0-3-----0-0-0-2-----0-0-0-1---------------------------------||
D|0-0-0-3-----0-0-0-2-----0-0-0-1---------------------------------||
PM. . .       . . .       . . . 

E|----------------------------------------------------------------||
B|----------------------------------------------------------------||
G|----------------------------------------------------------------||
D|----------------------------------------------------------------||
A|----------------------------------------------------------------||
D|000-----------00---00-----------00000---------00---00-----------||
PM...           ..   ..           .....         ..   ..

E|----------------------------------------------------------------||
B|----------------------------------------------------------------||
G|----------------------------------------------------------------||
D|----------------------------------------------------------------||
A|000-----------00---00-----------00000---------00---00-----------||
D|000-----------00---00-----------00000---------00---00-----------||
PM...           ..   ..           .....         ..   ..

E|----------------------------------------------------------------||
B|----------------------------------------------------------------||
G|----------------------------------------------------------------||
D|----------------------------------------------------------------||
A|----3---2---1-0---2---1---2---3-----3---2---1-0---2---1---------||
D|000-3-0-2-0-1-0-0-2-0-1-0-2-0-3-000-3-0-2-0-1-0-0-2-0-1---------||
PM...   .   .     .   .   .   .   ...   .   .     .   .
Comments