Burn Kate - City Limits Chords & Tabs

 

City Limits Chords & Tabs

Burn Kate Chords & Tabs

Version: 2 Type: Tab 0 ratings
1 star 2 stars 3 stars 4 stars 5 stars
comments

City Limits Tab

Artist: Burn Kate
Song Title: City Limits
Album: Big Rock Show
Style: Punk
                    whole song in distortion
     Intro:
e---------------------------------------------------------------------------------------------------------|
b---------------------------------------------------------------------------------------------------------|
g---------------------------------------------------------------------------------------------------------|
d--9-9-9-9--9---9--9-9-9-9---9--9---9-9-9-9---9--9--9-9-9-9---9--9---9-9-9-9--9--9------------------------|
a--7-7-7-7--7---7--7-7-7-7---7--7---7-7-7-7---7--7--7-7-7-7---7--7---7-7-7-7--7--7------------------------|
e--7-7-7-7---------7-7-7-7----------7-7-7-7---------7-7-7-7----------7-7-7-7------------------------------|
   |--pm--|        |--pm--|         |--pm--|        |--pm--|         |--pm--------------------------------|

e-------------------------------------|---(guitar #1)---------------------------------------|
b-------------------------------------|-----------------------------------------------------|
g-------------------------------------|--9-9-9-9-9-9----------------------------------------|
d--9-9-9-9--9---9--9-9-9-9---9--9---7-|- 9-9-9-9-9-9--9-9-9-9-9-9--7-7-7-7-7-7-7-7-7-7-7-7--|
a--7-7-7-7--7---7--7-7-7-7---7--7---7-|--7-7-7-7-7-7--9-9-9-9-9-9--7-7-7-7-7-7-7-7-7-7-7-7--|
e--7-7-7-7---------7-7-7-7----------5-|---------------7-7-7-7-7-7--5-5-5-5-5-5-5-5-5-5-5-5--|
   |--pm--|        |--pm--------------------------------------------------------------------|
e-------------------------------------------------------------------------------------------|
b-------------------------------------------------------------------------------------------|
g--9-9-9-9-9-9------------------------------------------------------------------------------| continues playin while second guitar kicks in
 d--9-9-9-9-9-9--9-9-9-9-9-9--7-7-7-7-7-7-7-7-7-7-7-7---------------------------------------|
a--7-7-7-7-7-7--9-9-9-9-9-9--7-7-7-7-7-7-7-7-7-7-7-7----------------------------------------|
e---------------7-7-7-7-7-7--5-5-5-5-5-5-5-5-5-5-5-5----------------------------------------|

   Riff:

e----(guitar#2)------0-4-5-4-5-4---4-5-4-5-4----5-4-5-4-5-4-5-4-5-4-5-4--------------|
b--------------------------------------0---------------------------------------------|
g------------------------------------------------------------------------------------|
d-----                      ---------------------------------------------------------|
a-----   pick slide         ---------------------------------------------------------|
e-----                      ---------------------------------------------------------|

e----------0-4-5-4-5-4---4-5-4-5-4----5-4-5-4-5-4-5-4-5-4-5-4-----------------------|
b--------------------------------------0--------------------------------------------|
g-----------------------------------------------------------------------------------|
d-----------------------------------------------------------------------------------|
a-----------------------------------------------------------------------------------|
e-----------------------------------------------------------------------------------|
[ Tab from: http://www.guitartabs.cc/tabs/b/burn_kate/city_limits_tab_ver_2.html ]
   Verse:
e----------------------------------------------------------------|
b----------------------------------------------------------------|
g--9-x-x-x-x-9-0-------------------------------------------------|
d--9-x-x-x-x-9-0--9-x-x-x-x--9-7--7-x-x-x-x--7--9-9-x-x-x-x-x-x--|listen to song for how many times,
a--7-x-x-x-x-7-0--9-x-x-x-x--9-7--7-x-x-x-x--7--9-9-x-x-x-x-x-x--|dont palm mute the last 2 parts
e-----------------7-x-x-x-x--7-5--5-x-x-x-x--5--7-7-x-x-x-x-x-x--|

e-------------------------------------------------------------------------------------------|
b-------------------------------------------------------------------------------------------|
g--9-9-9-9-9-9------------------------------------------------------------------------------|
d--9-9-9-9-9-9---9-9-9-9-9-9---7-7-7-7-7-7--9-9-9-9-9-9-------2-----------------------------| times
a--7-7-7-7-7-7---9-9-9-9-9-9---7-7-7-7-7-7--9-9-9-9-9-9-------------------------------------|
e----------------7-7-7-7-7-7---5-5-5-5-5-5--7-7-7-7-7-7-------------------------------------|

   Pre Chorus:
e------------------------------------------------|
b------------------------------------------------|
g------------------------------------------------|
d--9-9-9-11-11-11--7-7--9-9-9-9-----4------------|times
a--7-7-7-11-11-11--7-7--9-9-9-9------------------|
e--7-7-7--9--9---9-5-5--7-7-7-7------------------|

   Chorus:
e--------------------------------------------------------------------|
b--------------------------------------------------------------------|
g------------9-9-9-9-9-9---------------------------------------------|
d--9-9-9-9---9-9-9-9-9-9-11--11--11--11--11--11----9-9-9-9-9-9----3--| times and then ...........
a--7-7-7-7---7-7-7-7-7-7-11--11--11--11--11--11----9-9-9-9-9-9-------|
e--7-7-7-7----------------9---9---9---9---9---9----7-7-7-7-7-7-------|

e------------------------------------------------|
b------------------------------------------------|
g------------------------------------------------|
d---7-7-7-7-7-7--9-9-9-9-9-9---------------------|
a---7-7-7-7-7-7--9-9-9-9-9-9---------------------|
e---5-5-5-5-5-5--7-7-7-7-7-7---------------------|

   Riff

   Verse

   Pre Chorus

   Chorus

   Riff.......and then....

e-----------------------------------------------------------------------------------------------------|
b-----------------------------------------------------------------------------------------------------|
g-----------------------------------------------------------------------------------------------------|
d-11--11-11--11-11--11--7--11--11-11--11-11--11--9-11--11-11--11-11--11-11--11-11--11--11--11-11-11---|
a-11--11-11--11-11--11--7--11--11-11--11-11--11--9-11--11-11--11-11--11-11--11-11--11--11--11-11-11---|
e--9---9--9---9--9---9--5---9---9--9---9--9---9--7--9---9--9---9--9---9--9---9--9---9---9---9--9--9---|

e------------------------------------------------|
b------------------------------------------------|
g------------------------------------------------|
d-11-9-9-9-9-9-9-9-9-9-9-9-9-9-9-9---------------|
a-11-9-9-9-9-9-9-9-9-9-9-9-9-9-9-9---------------|
e--9-7-7-7-7-7-7-7-7-7-7-7-7-7-7-7---------------|

then intro twice and end on

e--------|
b--------|
g--------|
d---9----|
a---7----|
e---7----|
Comments