Burn Chesca Burn - Risk It Chords & Tabs

 

Risk It Chords & Tabs

Burn Chesca Burn Chords & Tabs

Version: 1 Type: Tab 0 ratings
1 star 2 stars 3 stars 4 stars 5 stars
comments

Risk It Tab

---------------------------------------------------------------------
                     "Risk It" - Burn Chesca Burn
---------------------------------------------------------------------

Tabbed by: Justin RiRaY 
Email: Pakman7JR@hotmail.com           AIM: BeatPwner

     YEA my new hobby is tabbing Chesca's songs =D


Tuning: eBGDAE

     INTRO(X2) / VERSE (X2)

e|-------------------------------------------------------------------|
B|-------------------------------------------------------------------|
G|--666x-6-666x-6--9999------------------9999------------------------|
D|--666x-6-666x-6--9999---999x-9-999x-9--9999------------------------|
A|--444x-4-444x-4--7777---999x-9-999x-9--7777------------------------|
E|------------------------777x-7-777x-7------------------------------|

e|-------------------------------------------------------------------|
B|-------------------------------------------------------------------|
G|-----------------9999----------999x-9-8888-------------------------|
D|--777x-7-777x-7--9999---999x-9-999x-9-8888-------------------------|
A|--777x-7-777x-7--7777---999x-9-777x-7-6666-------------------------|
E|--555x-5-555x-5---------777x-7-------------------------------------|


     PRE-CHORUS

e|-------------------------------------------------------------------|
B|-------------------------------------------------------------------|
G|--6x-6x-6x-6x-6x-6x-6666-------------------------------------------|
D|--6x-6x-6x-6x-6x-6x-6666---9x-9x-9x-9x-9x-9x-9x-99-----------------|
A|--4x-4x-4x-4x-4x-4x-4444---9x-9x-9x-9x-9x-9x-9x-99-----------------|
E|---------------------------7x-7x-7x-7x-7x-7x-7x-77-----------------|
[ Tab from: http://www.guitartabs.cc/tabs/b/burn_chesca_burn/risk_it_tab.html ]
e|-------------------------------------------------------------------|
B|-------------------------------------------------------------------|
G|--9x-9x-9x-9x-9x-9x-9x-9x-99---------------------------------------|
D|--9x-9x-9x-9x-9x-9x-9x-9x-99---7x-7x-7x-7x-7x-7x-7x-7--------------|
A|--7x-7x-7x-7x-7x-7x-7x-7x-77---7x-7x-7x-7x-7x-7x-7x-7--------------|
E|-------------------------------5x-5x-5x-5x-5x-5x-5x-5--------------|

e|-------------------------------------------------------------------|
B|-------------------------------------------------------------------|
G|--6x-6x-6x-6x-6x-6x-6x-66------------------------------------------|
D|--6x-6x-6x-6x-6x-6x-6x-66---9x-9x-9x-9x-9x-9x-9x-99----------------|
A|--4x-4x-4x-4x-4x-4x-4x-44---9x-9x-9x-9x-9x-9x-9x-99----------------|
E|----------------------------7x-7x-7x-7x-7x-7x-7x-77----------------|

e|-------------------------------------------------------------------|
B|-------------------------------------------------------------------|
G|--9x-9x-9x-9x-9x-9x-9x-99------------------------------------------|
D|--9x-9x-9x-9x-9x-9x-9x-99---7--7--7--------------------------------|
A|--7x-7x-7x-7x-7x-7x-7x-77---7--7--7--------------------------------|
E|----------------------------5--5--5--------------------------------|


     CHORUS (X2)

e|-------------------------------------------------------------------|
B|-------------------------------------------------------------------|
G|--6-666-x-6-666-x-6666---------------------------------------------|
D|--6-666-x-6-666-x-6666--7-777-x-7-777-x-7777-----------------------|
A|--4-444-x-4-444-x-4444--7-777-x-7-777-x-7777-----------------------|
E|------------------------5-555-x-5-555-x-5555-----------------------|

e|-------------------------------------------------------------------|
B|-------------------------------------------------------------------|
G|--9-999-x-9-999-x-9999---------------------------------------------|
D|--9-999-x-9-999-x-9999--9-999-x-9-999-x-9999-----------------------|
A|--7-777-x-7-777-x-7777--9-999-x-9-999-x-9999-----------------------|
E|------------------------7-777-x-7-777-x-7777-----------------------|

          ~INTRO (X2) / VERSE (X2)

          ~PRE-CHORUS

          ~CHORUS (X2)

          ~INTRO (X2)

          ~PRE-CHORUS

          ~CHORUS (X2)

          ~INTRO (X2)


| x  Mute note
=====================================================================
Comments