Burden Brothers - If Youre Going To Heaven Chords & Tabs

 

If Youre Going To Heaven Chords & Tabs

Burden Brothers Chords & Tabs

Version: 1 Type: Chords 0 ratings
1 star 2 stars 3 stars 4 stars 5 stars
comments

If Youre Going To Heaven Chords

   
Burden Brothers - If you're Going to Heaven
Tabbed by : Shawn Klapproth
Tuning: standard - EADGBe






D              Dm        A                                       
   If you're goin, to heaven   
                              e-----7--7------5--5-----------   
                              B ----7--7------5--5-----------
                   
 D          Dm                 A                             
   And you think you know the way 
                                e-----7--7------5--5-----------   
                                B ----7--7------5--5-----------

D         Dm                   A 
  Please show me the right direction


            F#m
   And ill follow you


Bm      E                    A
   I wont let you get away


D              Dm              A
   And you're heart is sad and heavy
                                        e-----7--7------5--5-----------   
                                        B ----7--7------5--5-----------

D                Dm                A
  You hide your face behind your hands
                                       e-----7--7------5--5-----------   
                                       B ----7--7------5--5-----------

D            Dm               A
   If youll take a chance and let me


         F#m
    Ill follow you

Bm        E               A
   I will always be your man


e---x--x------x-----xx-
B---x--x------x-----xx-
G---x--x------x-----xx-
D---x--x------x-----xx-
A---x--x------x-----xx-
E---x--x------x-----xx-





Bm                             F#m-----E
   You know I don't need your attention


Bm                                F#m-----E
   I don't need your pity or your grief


D           Dm             A  
   Im not a slave to your affection 


F#m                          E
   Im a slave to your belief


D              Dm       A
   So if youre goin to heaven
                            e-----7--7------5--5-----------   
                            B ----7--7------5--5-----------

D          Dm             A
   Say you wont leave me behind
                             e-----7--7------5--5-----------   
                             B ----7--7------5--5-----------

D                Dm           A                  
   Cause without you, im as helpless 


         F#m   
   as a little child

[ Tab from: http://www.guitartabs.cc/tabs/b/burden_brothers/if_youre_going_to_heaven_crd.html ]
Bm         E              A
   Girl I need you by my side.......yeah



e---------------------------------?---------------------------------------
B---------------------------------?---------------------------------------
G----/11-----/10-----/9-----------?-------/11----/13----/14--------/19/---
D---------------------------------?---------------------------------------
A---------------------------------?---------------------------------------
E---------------------------------?---------------------------------------


e-------------------------------------------------------------------------
B-------------------------------------------------------------------------
G-----/14-13h-11h-14--------7---9---10------------------------------------
D------------------------------------------11b---7--9--119h-7h-9---------
A-------------------------------------------------------------------------
E-------------------------------------------------------------------------


e-------------------------------------------------------------------------
B---9-9-7---9-----------7--9--7--10---------------------------------------
G-------------7-----------------------------------------------------------
D---------------9--7------------------------------------------------------
A-------------------------------------------------------------------------
E-------------------------------------------------------------------------


e---x--x------x-----xx-
B---x--x------x-----xx-
G---x--x------x-----xx-
D---x--x------x-----xx-
A---x--x------x-----xx-
E---x--x------x-----xx-


Bm                              F#m--------E
   You know I don't need your attention......NO!


Bm                                           F#m--------E
   I don't need your pity, I don't need your grief


D           Dm             A 
   Im not a slave to your affection


F#m                  E
   Im a slave to your belief


D               Dm      A 
   So if you're goin to heaven
                               e-----7--7------5--5-----------   
                               B ----7--7------5--5-----------

D             Dm                 A
   And you're sure you know the way
                               e-----7--7------5--5-----------   
                               B ----7--7------5--5-----------

D          Dm                A            
   Please show me the right direction


            F#m
    and ill follow you


Bm            E              A--G#m--F#m  
   I wont be let you get away....no, no

Bm        E             A 
   I wont let you get away
Comments