Bunton Emma - What Took You So Long Chords & Tabs

 

What Took You So Long Chords & Tabs

Bunton Emma Chords & Tabs

Version: 1 Type: Tab 0 ratings
1 star 2 stars 3 stars 4 stars 5 stars
comments

What Took You So Long Tab

   
Emma bunton - What took you so long?

e----------------------------|
B----------------------------|
G----------------------------|
D----------------------------|
A--2h3p2-------3h5p3---2-3>5-|
E---------3>5--------5-------|

I think the chords played throught out the song is Am and Am7

Am
E A D G B E
x x 3 3 2 0
[ Tab from: http://www.guitartabs.cc/tabs/b/bunton_emma/what_took_you_so_long_tab.html ]
Am7
E A D G B E
x x 3 0 2 0

repeat a couple of times|then play this
e----3-----|                e--------|
B---1--0h1-|                B---1-0--|
G--2-------|                G------0-|
D-2--------|                D--------|
A----------|                A--------|
E----------|                E--------|

nequeries email me at hockysa@hotmail.com
Comments