Bump Of Chicken - Snow Smile Chords & Tabs

 

Snow Smile Chords & Tabs

Bump Of Chicken Chords & Tabs

Version: 1 Type: Tab 0 ratings
1 star 2 stars 3 stars 4 stars 5 stars
comments

Snow Smile Tab

   
Bump of Chicken- Snow Smile
song/lyric by fujiwara motoo


intro 

D
----|-------------------------|---------------------|
----|-15----------------------|-15------------------|
----|--------12----12^14------|------12--12^14------|
-12-|----------------------12-|---------------------|
----|-------------------------|---------------------|
----|-------------------------|---------------------|


verse 1 
 fuyu ga samukutte hontou ni yokatta
 kimi no hieta hidari te wo
 boku no migi poketto ni omaneki suru tame no
 kono ue nai hodo no riyuu ni naru kara


G	       D     C 	     GonB      Am7  G     DonF#  Em            DonF
-------3-------2-----0-----|---------------------------|---------------------------|
-3-------------------------|-3---------1----0-----3----|-------0-------3-----------|
----0-----0-------2--------|-------0-----------0-----2-|----0----------------2-----|
---------------0--------0--|----0----------------------|----------2-------0-----0--|
---------------------3-----|-2---------0---------------|---------------------------|
-3-------------------------|----------------3-----2----|-0-------------2-----------|
 

 ConG          G     Am7     GonB          C             GonB          C     
-1-------------------------|-------3-------0-----------|-------3-------0-----------|
---------------0-----1-----|-3-------------------1-----|-3-------------------1-----|
-------0----------0-----0--|----0-----0-------0--------|----0-----0-------0--------|
----2-----2----------------|---------------------------|---------------------------|
---------------------0-----|-2-------------3-----------|-2-------------3-----------|
-3-------------3-----------|---------------------------|---------------------------|


 Am7   GonB    C             ConD        D
---------------0-----------|-0--------0--2-----2^3^2---||
-1-----3-------------------|-------1----------------3--||
----0-----0----------0-----|----0-----------2----------||
------------------2-----2--|-0-----------0-------------||
-0-----2-------3-----------|---------------------------||
---------------------------|---------------------------||


Verse 2
 'yuki ga fureba ii' to kuchi wo togaraseta
 omoitoori ni ha ikanai sa
 ochiba wo kettobasu na yo ima ni mata korobu zo
 nande okotteru no ni tanoshisou na no?


G	       D     C 	     GonB      Am7  G     DonF#  Em            DonF
-------3-------2-----0-----|---------------------------|---------------------------|
-3-------------------------|-3---------1----0-----3----|-------0-------3-----------|
----0-----0-------2--------|-------0-----------0-----2-|----0----------------2-----|
---------------0--------0--|----0----------------------|----------2-------0-----0--|
---------------------3-----|-2---------0---------------|---------------------------|
-3-------------------------|----------------3-----2----|-0-------------2-----------|
 

 ConG          G     Am7     GonB          C             GonB          C     
-1-------------------------|-------3-------0-----------|-------3-------0-----------|
---------------0-----1-----|-3-------------------1-----|-3-------------------1-----|
-------0----------0-----0--|----0-----0-------0--------|----0-----0-------0--------|
----2-----2----------------|---------------------------|---------------------------|
---------------------0-----|-2-------------3-----------|-2-------------3-----------|


 Am7   GonB    C             ConD          D (start strumming)             
---------------0-----------|-0--------0----2-----------|
-1-----3-------------------|-------1-------3-----------|
----0-----0----------0-----|----0----------2-----------|
------------------2-----2--|-0-------------0-----------|
-0-----2-------3-----------|---------------0-----------|
---------------------------|---------------0-----------|
[ Tab from: http://www.guitartabs.cc/tabs/b/bump_of_chicken/snow_smile_tab.html ]
  ConD          GonB    
mada kirei na mama no yuki no jyuntan ni
Am7                   G    
futari de kizamu ashiato no heikousen 
   DonC         GonB Em       C#m7-5     
konna yumemonogatari kanawanaku tatte 
Cadd9       ConD    D
egao ha koboretekuru 

D			     C             GonB  Am7
--------------2^3^2---0^2--|-0-------------------------|
-------------------3-------|-------1-------3-----1-----|
---------------------------|----0-----0-------0-----0--|
--------------0------------|---------------------------|
---------------------------|-3-------------2-----------|
---------------------------|---------------------------|
          yuki no nai michi  ni 


  G                   D             C     GonB   Am7 G 
futari de aruku ni ha sukoshi kotsu ga iru
DonF#  Em      DonF#   ConG   G    
kimi no hohaba ha semai 
Am7 GonB             C           GonB          C
dekiru dake jikan wo kakete keshiki wo miteoku yo
Am7   GonB C         ConD       D
furikaeru   kimi no iru keshiki wo 

  ConD          GonB  
mada kawaita mama no sora no ka-ten ni 
Am7                   G    
futari de narasu ashioto no o-kesutora 
   DonC         GonB Em       C#m7-5  
hora yumemonogatari kanau mae datte 
Cadd9       ConD    D
egao ha kimi ga kureru 

 D
--------------2^3^2---0^2--|
-------------------3-------|
---------------------------|
--------------0------------|
---------------------------|
---------------------------|
          sonna no wakatteru 


DonC        GonB Am7 G DonC GonB Am7 G 
(SNOW SMILE)

  DonC          GonB
mada kirei na mama no yuki no jyuntan ni
Am7                   G
futari de kizamu ashiato no heikousen 
   DonC         GonB Em        C#m7-5
soosa yumemonogatari negawanaku tatte 
Cadd9       ConD     D
egao ha oshietekureta 

D                            C             GonB  Am7       
--------------2^3^2---0^2--|-0-------------------------|
-------------------3-------|-------1-------3-----------|
---------------------------|----0-----0-------0-----0--|
--------------0------------|---------------------------|
---------------------------|-3-------------2-----0-----|
---------------------------|---------------------------|
           boku no yuku michi wo


verse 3 

kimi to deaete hontou ni yokatta
onaji kisetsu ga meguru 
boku no migi poketto ni shimatteta omoide ha 
yappari shimatte aruku yo

G	       D     C 	     GonB      Am7  G     DonF#  Em            DonF
-------3-------2-----0-----|---------------------------|---------------------------|
-3-------------------------|-3---------1----0-----3----|-------0-------3-----------|
----0-----0-------2--------|-------0-----------0-----2-|----0----------------2-----|
---------------0--------0--|----0----------------------|----------2-------0-----0--|
---------------------3-----|-2---------0---------------|---------------------------|
-3-------------------------|----------------3-----2----|-0-------------2-----------|
 

 ConG          G     Am7     GonB          C             GonB          C     
-1-------------------------|-------3-------0-----------|-------3-------0-----------|
---------------0-----1-----|-3-------------------1-----|-3-------------------1-----|
-------0----------0-----0--|----0-----0-------0--------|----0-----0-------0--------|
----2-----2----------------|---------------------------|---------------------------|
---------------------0-----|-2-------------3-----------|-2-------------3-----------|
-3-------------3-----------|---------------------------|---------------------------|


 Am7   GonB    C             ConD        
---------------0-----------|-0--------0--0--------0----|
-1-----3-------------------|-------1-----------1-------|
----0-----0----------0-----|----0-----------0----------|
------------------2-----2--|-0-----------0-------------|
-0-----2-------3-----------|---------------------------|
---------------------------|---------------------------|

D                  G
kimi no inai michi wo
Comments