Bumblebeez 81 - Pony Ride Chords & Tabs

 

Pony Ride Chords & Tabs

Bumblebeez 81 Chords & Tabs

Version: 1 Type: Tab 0 ratings
1 star 2 stars 3 stars 4 stars 5 stars
comments

Pony Ride Tab

Title: Pony RIde
Band: The Bumblebeez
Album: Printz
Tuning: Standard
Tabbing by: Sean Konagaya

If you got any critisism's just email me at MeeCexii@hotmail.com.
I know there might be something wrong, but the only reason i made
this is because no one else had it. ANd keep in mind this is my
first tab i ever did.


INTRO
(0:01) Oh... Oh... Oh...
|--------------------------|
|--------------------------|
|----3-3---3------3-3---3--|
|--------0------------0----| 7x
|--------------------------|
|--3----------3-3----------|


MAIN RIFF
(0:19) Say you...
|-----------------------------------------------------------|
|-----------------------------------------6-6-6-6-6b-6-6-6--|
|----3-3---3------3-3-----3-3----3-3---3--------------------|
|--------0------------0-0------------0----------------------| 3x
|-----------------------------------------------------------|
|--3----------3-3--------------3----------------------------|


CHORUS
(0:37) Tweak it up... (? i think)
|-------------------------------------------------------------|
|-------------------------------------------6-6-6-6-6b-6-6-6--|
|----3-3---3------3-3-----3-3----3-3-----3--------------------|
|--------0------------0-0------------0-0----------------------| 4x
|-------------------------------------------------------------|
|--3----------3-3--------------3------------------------------|


back to INTRO
(1:00) Kicken in the kitchen...
|--------------------------|
|--------------------------|
|----3-3---3------3-3---3--|
|--------0------------0----| 4x
|--------------------------|
|--3----------3-3----------|


MAIN RIFF
(1:12) ...
|-----------------------------------------------------------|
|-----------------------------------------6-6-6-6-6b-6-6-6--|
|----3-3---3------3-3-----3-3----3-3---3--------------------|
|--------0------------0-0------------0----------------------| 1x
|-----------------------------------------------------------|
|--3----------3-3--------------3----------------------------|

[ Tab from: http://www.guitartabs.cc/tabs/b/bumblebeez_81/pony_ride_tab.html ]
RIFF 2
(1:18) ...
|------------------------------|
|------------------------------|
|----3-3---3------3-3-----3-3--|
|--------0------------0-0------| 4x
|------------------------------|
|--3----------3-3--------------|


MAIN RIFF
(1:30) ...
|-----------------------------------------------------------|
|-----------------------------------------6-6-6-6-6b-6-6-6--|
|----3-3---3------3-3-----3-3----3-3---3--------------------|
|--------0------------0-0------------0----------------------| 1x
|-----------------------------------------------------------|
|--3----------3-3--------------3----------------------------|


CHORUS
(1:35) Ride a pony get it up...
|-------------------------------------------------------------|
|-------------------------------------------6-6-6-6-6b-6-6-6--|
|----3-3---3------3-3-----3-3----3-3-----3--------------------|
|--------0------------0-0------------0-0----------------------| 2x
|-------------------------------------------------------------|
|--3----------3-3--------------3------------------------------|


CHORUS EXTENSION
(1:47) ...............Oh...
|------------------------------|
|------------------------------|
|----3-3---3------3-3----------|
|--------0------------0--------| 4x
|------------------------------|
|--3----------3-3--------------|


back to INTRO
(1:50) ...
|--------------------------|
|--------------------------|
|----3-3---3------3-3---3--|
|--------0------------0----| 8x
|--------------------------|
|--3----------3-3----------|


CHORUS
(2:14) Soak it up... (? i think)
|-------------------------------------------------------------|
|-------------------------------------------6-6-6-6-6b-6-6-6--|
|----3-3---3------3-3-----3-3----3-3-----3--------------------|
|--------0------------0-0------------0-0----------------------| 2x
|-------------------------------------------------------------|
|--3----------3-3--------------3------------------------------|


OUTRO
(2:26) Gimme ride a pony get it up ...
|-------------------------------|
|-------------------------------|
|-----3-3---3------3-3-----3-3--|
|---------0------------0-0------| 3x
|-------------------------------|
|--3-3---------3-3--------------|


ENDING
(2:34) I say riding the pony gotta get it up ...
|-----------------|
|-----------------|
|-----3-3---3-----|
|---------0-------|
|-----------------|
|--3-3---------3--|
Comments