Bullets And Octane - Pirates Chords & Tabs

 

Pirates Chords & Tabs

Bullets And Octane Chords & Tabs

Version: 2 Type: Tab 0 ratings
1 star 2 stars 3 stars 4 stars 5 stars
comments

Pirates Tab

   
-------------------------------------------------------------
               Pirates - Bullets And Octane
-------------------------------------------------------------

by:brian
Email:pdefenderx@yahoo.com
gimme comments..this is my first.

Tuning: standard

intro/riff:

p.m in intro
e|---------------------------------------------|
B|---------------------------------------------|
G|-5-5-5-55-5------------8-8-8-88-8------------|
D|-5-5-5-55-5-6-6-6-66-6-8-8-8-88-8-8-8-8-88-8-|x2
A|-3-3-3-33-3-6-6-6-66-6-6-6-6-66-6-8-8-8-88-8-|
E|------------4-4-4-44-4------------6-6-6-66-6-|
                                     |1st time-|


verse:
e|--------------------------------------------------|
B|--------------------------------------------------|
G|----5-5--8--8-----------5-5--8--8-----------------|
D|----5-5--8--8--6--6--5--5-5--8--8--6--6--5--------|
A|----3-3--6--6--6--6--5--3-3--6--6--6--6--5--------|
E|---------------4--4--3-------------4--4--3--------|


verse2:

e|------------------------------|
B|------------------------------|
G|----5-5----8--8---------------|
D|----5-5----8--8----6--6----8--|
A|----3-3----6--6----6--6----8--|
E|-------------------4--4----6--|


chorus:

e|------------------|
B|------------------|
G|----8-----10------| x2
D|----8-----10----6-|
A|----6-----8-----6-|
E|----------------4-|

interlude/bridge
1st guit
e|----------------|
B|----------------|
G|----------------|over and over
D|----------------|
A|-3-3/6----------|
E|-------3-3/6----|

2nd guit
e|---------------------------------------------|
B|---------------------------------------------|
G|----------------------------------pick slide-|
D|-3-1-0-1-3-1-0----5-3---3--------------------|
A|----------------------6---6-3-3/5------------|
E|---------------------------------------------|

2nd guit during verse
e|----------------------------|
B|----------------------------|
G|--8-8--8/12-10-10/12-8------|x2
D|----------------------------|
A|----------------------------|
E|----------------------------|

e|-------------------------|
B|-------------------------|
G|--12-12-12h13-12-10-8----|x2
D|-------------------------|
A|-------------------------|
E|-------------------------|

end
e|-----------------|
B|-----------------|
G|--5-5------5-----|
D|--5-5------5-----|
A|--3-3------3-----|
E|-------4p3-------|
-
[ Tab from: http://www.guitartabs.cc/tabs/b/bullets_and_octane/pirates_tab_ver_2.html ]
| /  slide up
| \  slide down
| h  hammer-on
| p  pull-off
| ~  vibrato
| +  harmonic
| x  Mute note
============================
-------------------------------------------------------------
               Pirates - Bullets And Octane
-------------------------------------------------------------

Tuning: standard

intro/riff:

p.m in intro
E|-----------------------------------------------------------------|
B|-----------------------------------------------------------------|
G|-5-5-5-55-5-----------------8-8-8-88--8--------------------------|
D|-5-5-5-55-5--6-6-6-66-6--8-8-8-88-8--8-8-8-88-8------------------|x2
A|-3-3-3-33-3--6-6-6-66-6--6-6-6-66-6--8-8-8-88-8------------------|
E|----------------4-4-4-44-4------------------6-6-6-66-6-----------|
                                                                  |-1st time-|


verse:
E|------------------------------------------------------------|
B|------------------------------------------------------------|
G|----5-5--8--8-------------5-5--8--8-------------------------|
D|----5-5--8--8--6--6--5--5-5--8--8--6--6--5------------------|
A|----3-3--6--6--6--6--5--3-3--6--6--6--6--5------------------|
E|-----------------4--4--3----------------4--4--3-------------|


verse2:

E|-------------------------------------|
B|-------------------------------------|
G|----5-5----8--8----------------------|
D|----5-5----8--8----6--6----8---------|
A|----3-3----6--6----6--6----8---------|
E|---------------------4--4----6-------|


chorus:

E|-----------------------|
B|-----------------------|
G|----8-----10-----------| x2
D|----8-----10----6------|
A|----6-----8-----6------|
E|-----------------4-----|

interlude/bridge
1st guit
E|---------------------|
B|---------------------|
G|---------------------|over and over
D|---------------------|
A|-3-3/6---------------|
E|--------3-3/6--------|

2nd guit
E|----------------------------------------------------------|
B|----------------------------------------------------------|
G|-------------------------------------------pick slide-----|
D|-3-1-0-1-3-1-0----5-3---3---------------------------------|
A|----------------------------6---6-3-3/5-------------------|
E|----------------------------------------------------------|

2nd guit during verse
E|-------------------------------------|
B|-------------------------------------|
G|--8-8--8/12-10-10/12-8---------------|x2
D|-------------------------------------|
A|-------------------------------------|
E|-------------------------------------|

E|-------------------------------------|
B|-------------------------------------|
G|--12-12-12h13-12-10-8----------------|x2
D|-------------------------------------|
A|-------------------------------------|
E|-------------------------------------|

end
E|---------------------|
B|---------------------|
G|--5-5------5---------|
D|--5-5------5---------|
A|--3-3------3---------|
E|-------4p3-----------|
============================
Comments