Bullets And Octane - Pirates Chords & Tabs

 

Pirates Chords & Tabs

Bullets And Octane Chords & Tabs

Version: 1 Type: Tab 0 ratings
1 star 2 stars 3 stars 4 stars 5 stars
comments

Pirates Tab

Hey, I played it by ear and it sounded right, by the way its in drop d.
Bullets and Octane is a kinda gothic band but not too heavy. Music is easy, very easy to play.

                                      
La Da part (palm mute for 1st and 3rd)                 
|--------------------------------------------|
|--------------------------------------------|
|--------------------------------------------|
|-10-10-10-10--6-6-6-6--13-13-13-13--8-8-8-8-|
|-10-10-10-10--6-6-6-6--13-13-13-13--8-8-8-8-|
|-10-10-10-10--6-6-6-6--13-13-13-13--8-8-8-8-|

Verse
|---------------------------------|
|---------------------------------|
|---------------------------------|
|-10-10--10-12-12-12-6-6--6-6-5-5-|
|-10-10--10-12-12-12-6-6--6-6-5-5-|
|-10-10--10-12-12-12-6-6--6-6-5-5-|
[ Tab from: http://www.guitartabs.cc/tabs/b/bullets_and_octane/pirates_tab.html ]
Verse #2
|---------------------------------|
|---------------------------------|
|---------------------------------|
|-10-10--10-12-12-12-6-6--6-6-8-8-|
|-10-10--10-12-12-12-6-6--6-6-8-8-|
|-10-10--10-12-12-12-6-6--6-6-8-8-|

Chorus
|---------------------------------|
|---------------------------------|
|---------------------------------|
|-1-1-1-1-1-1-1-1-3-3-3-3-6-6-6-6-|
|-1-1-1-1-1-1-1-1-3-3-3-3-6-6-6-6-|
|-1-1-1-1-1-1-1-1-3-3-3-3-6-6-6-6-|

Bridge
|---------------|
|---------------|
|---------------|
|-10---12--5--8-|
|-10---12--5--8-|
|-10---12--5--8-|

Outro
|--------------|
|--------------|
|--------------|
|-10-10--6--10-|
|-10-10--6--10-|
|-10-10--6--10-|

Order:
1. La Da.....x2 Palm Mute
2. Verse.....x2
3. La Da.....x1
4. Verse#2...x1
5. Chorus....x2
6. Verse.....x2
7. La Da.....x1
8. Verse#2...x1
9. Chorus....x2
10. Bridge...x4
11. La Da....x2 Palm Mute
12. Chorus...x6
13. Outro....x1
Comments