Bullet For My Valentine - The End Chords & Tabs

 

The End Chords & Tabs

Bullet For My Valentine Chords & Tabs

Version: 1 Type: Tab 1 rating
1 star 2 stars 3 stars 4 stars 5 stars
comments

The End Tab

   
Tuning:Drop C (CGCFAD)

INTRO (CLEAN)
D|-----------------------------------------------------------------------|X3
A|-----------------------------------------------------------------------|
F|-----------------------------------------------------------------------|
C|----15---14-----15-----15---14-----12----------------------------------|
G|--0----0----0-0------0----0----0-0-------------------------------------|
C|0------------------0---------------------------------------------------|

D|---------------------------------------------------3-------------------|X1
A|----------------------------------------------------3------------------|
F|-----------------------------------------------------0-----------------|
C|----15---14-----15/17-----15---14\12---12------------------------------|
G|--0----0----0-0---------0----0-------0---------------------------------|
C|0---------------------0------------------------------------------------|




VERSE 1 (CLEAN)
D|-----------------------------------------------------------------------|X3
A|-----------------------------------------------------------------------|
F|-----------------------------------------------------------------------|
C|----15---14-----15--14-------------------------------------------------|
G|--0----0----0-0----0--0-0-15-15-17-15----------------------------------|
C|0----------------------------------------------------------------------|

D|-------------------------------------------------------------------------|
A|-------------------------------------------------------------------------|
F|-------------------------------------------------------------------------|
C|----15---14-----15-14--15/17---------------------------------------------|
G|--0----0----0-0---0---0--------------------------------------------------|
C|0------------------------------------------------------------------------|

D| ------------------------------------------------------------------------|
A| ------------------------------------------------------------------------|
F| ------------------------------------------------------------------------|
C| ----15--14-----15--14---------------------------------------------------|
G| --0---0----0-0----0--0-0-15-15-17-15------------------------------------|
C| 0-----------------------------------------------------------------------|

D| ------------------------------------------------------------------------|
A| ------------------------------------------------------------------------|
F| ------------------------------------------------------------------------|
C| -----15---14/12---12----------------------------------------------------|
G| ---0----0-------0-------------------------------------------------------|
C| -0----------------------------------------------------------------------|





CHORUS 1 (DISTORTION)
D| ------------------------------------------------------------------------|
A| ------------------------------------------------------------------------|
F| ------------------------------------------------------------------------|
C| /15--/17--14---------------/15--/17--14---\12---------------------------|
G| ------------------------------------------------------------------------|
C| ------------------------------------------------------------------------|

*FIGURE OUT NUMBER OF PICKS*
D| ----------------------------------------------------------------------|
A| ----------------------------------------------------------------------|
F| ----------------------------------------------------------------------|
C|15151515\1414141414/1717171717/1919191919191919\121212121212-----------|
F| ----------------------------------------------------------------------|
C| ----------------------------------------------------------------12^^^^|



VERSE 2 (CLEAN)
D|------------------------------------------------------------------------|
A|-------------------------------------------------------------------------|
F|-------------------------------------------------------------------------|
C|----15---14-----15--14---------------------------------------------------|
G|--0----0----0-0----0--0-0-15-15-17-15------------------------------------|
C|0------------------------------------------------------------------------|

D|-------------------------------------------------------------------------|
A|-------------------------------------------------------------------------|
F|-------------------------------------------------------------------------|
C|----15---14-----15-14--15/17---------------------------------------------|
G|--0----0----0-0---0---0--------------------------------------------------|
C|0------------------------------------------------------------------------|

D| ------------------------------------------------------------------------|
A| ------------------------------------------------------------------------|
F| ------------------------------------------------------------------------|
C| ----15--14-----15--14---------------------------------------------------|
G| --0---0----0-0----0--0-0-15-15-17-15------------------------------------|
C| 0-----------------------------------------------------------------------|

D| ------------------------------------------------------------------------|
A| ------------------------------------------------------------------------|
F| -----------------------DISTORT------------------------------------------|
C| -----15---14/12---12--00000000------------------------------------------|
G| ---0----0-------0-----00000000------------------------------------------|
C| -0--------------------00000000------------------------------------------|
                         xxxxxxxx

D|-------------------------------------------------------------------------|
A|-------------------------------------------------------------------------|
F|-------------------------------------------------------------------------|
C|----15---14-----15--14---------------------------------------------------|
G|--0----0----0-0----0--0-0-15-15-17-15------------------------------------|
C|0------------------------------------------------------------------------|

D|-------------------------------------------------------------------------|
A|-------------------------------------------------------------------------|
F|-------------------------------------------------------------------------|
C|----15---14-----15-14--15/17---------------------------------------------|
G|--0----0----0-0---0---0--------------------------------------------------|
C|0------------------------------------------------------------------------|

D| ------------------------------------------------------------------------|
A| ------------------------------------------------------------------------|
F| ------------------------------------------------------------------------|
C| ----15--14-----15--14---------------------------------------------------|
G| --0---0----0-0----0--0-0-15-15-17-15------------------------------------|
C| 0-----------------------------------------------------------------------|

D| ------------------------------------------------------------------------|
A| ------------------------------------------------------------------------|
F| ------------------------------------------------------------------------|
C| -----15---14/12---12----------------------------------------------------|
G| ---0----0-------0-------------------------------------------------------|
C| -0----------------------------------------------------------------------|

[ Tab from: http://www.guitartabs.cc/tabs/b/bullet_for_my_valentine/the_end_tab.html ]
CHORUS 2 (DISTORTION)
D| ------------------------------------------------------------------------|
A| ------------------------------------------------------------------------|
F| ------------------------------------------------------------------------|
C| /15--/17--14---------------/15--/17--14---\12---------------------------|
G| ------------------------------------------------------------------------|
C| ------------------------------------------------------------------------|

FIGURE OUT RHYTHM
D| ------------------------------------------------------------------------|
A| ------------------------------------------------------------------------|
F| ------------------------------------------------------------------------|
C| 1515151515\14144141414/17171171717/19191919191919191919\12121212121212--|
F| ------------------------------------------------------------------------|
C| ------------------------------------------------------------------------|

FIGURE OUT RHYTHM  
D|-----------------------------------------------------------------------|X6
A|-----------------------------------------------------------------------|
F|-----------------------------------------------------------------------|
C|0--15--0--15-0--14\\---------------------------------------------------|
G|0--15--0--15-0--14\\---------------------------------------------------|
C|0--15--0--15-0--14\\---------------------------------------------------|
  x      x     x

D|-----------------------------------------------------------------------|X1
A|-----------------------------------------------------------------------|
F|-----------------------------------------------------------------------|
C|0--15--0--15-0--14\\----3p0-0h2-2h3-0h2-2h3----------------------------|
G|0--15--0--15-0--14\\---------------------------------------------------|
C|0--15--0--15-0--14\\---------------------------------------------------|
  x      x     x
D|-----------------------------------------------------------------------|x4
A|-----------------------------------------------------------------------|
F|-----------------------------------------------------------------------|
C|15\-0-14-0-15-0---14h15p14---------------------------------------------|
G|15\-0-14-0-15-0------------15h17---------------------------------------|
C|15\-0-14-0-15-0--------------------------------------------------------|
      x    x    x

FIGURE OUT RHYTHM
D| ----------------------------------------------------------------------|x2
A| ----------------------------------------------------------------------|
F| ----------------------------------------------------------------------|
C| 151515151515\14141414141414/17171717171717\14141414141414141414-------|
F| ----------------------------------------------------------------------|
C| ----------------------------------------------------------------------|

D|----------------------------------------------------------------------|x1
A|----------------------------------------------------------------------|
F|----------------------------------------------------------------------|
C|15\-0-14-0-15-0---14h15p14--------------------------------------------|
G|15\-0-14-0-15-0------------15h17--------------------------------------|
C|15\-0-14-0-15-0-------------------------------------------------------|
      x    x    x

FIGURE OUT RHYTHM
D| ----------------------------------------------------------------------|x2
A| ----------------------------------------------------------------------|
F| ----------------------------------------------------------------------|
C| 151515151515\14141414141414/17171717171717\14141414141414141414-------|
F| ----------------------------------------------------------------------|
C| ----------------------------------------------------------------------|


D|-----------------------------------------------------------------------|x1
A|-----------------------------------------------------------------------|
F|-----------------------------------------------------------------------|
C|15\-0-14-0-15-0---14h15p14---------------------------------------------|
G|15\-0-14-0-15-0------------15h17---------------------------------------|
C|15\-0-14-0-15-0--------------------------------------------------------|
      x    x    x

FIGURE OUT RHYTHM
D| ----------------------------------------------------------------------|
A| ----------------------------------------------------------------------|x2
F| ----------------------------------------------------------------------|
C| 151515151515\14141414141414/17171717171717\14141414141414141414-------|
F| ----------------------------------------------------------------------|
C| ----------------------------------------------------------------------|

D|-----------------------------------------------------------------------|x1
A|-----------------------------------------------------------------------|
F|-----------------------------------------------------------------------|
C|----15---14-----15-----15---14-----12----------------------------------|
G|--0----0----0-0------0----0----0-0-------------------------------------|
C|0------------------0---------------------------------------------------|

D|-----------------------------------------------------------------------|X1
A|-----------------------------------------------------------------------|
F|-----------------------------------------------------------------------|
C|0----15---14-----15/17-----15---14\12---12-----------------------------|
G|0--0----0----0-0---------0----0-------0--------------------------------|
C|0---------------------0------------------------------------------------|

FIGURE OUT RHYTHM  
D|-----------------------------------------------------------------------|X6
A|-----------------------------------------------------------------------|
F|-----------------------------------------------------------------------|
C|/0--15--0--15-0--14\\--------------------------------------------------|
G|/0--15--0--15-0--14\\--------------------------------------------------|
C|/0--15--0--15-0--14\\--------------------------------------------------|
   x      x     x
D|-----------------------------------------------------------------------|x1
A|-----------------------------------------------------------------------|
F|-----------------------------------------------------------------------|
C|/0--15--0--15-0--14\\----3p0-0h2-2h3-0h2-2h3---------------------------|
G|/0--15--0--15-0--14\\--------------------------------------------------|
C|/0--15--0--15-0--14\\--------------------------------------------------|
   x      x     x
OUTRO
D|-------------------------------------------------------------------------|
A|-------------------------------------------------------------------------|
F|-------------------------------------------------------------------------|
C|-0----0h3p0-0h2p0--5-3---------------------------------------------------|
G|-0-----------------------------------------------------------------------|
C|-0-----------------------------------------------------------------------|
   x

D|-------------------------------------------------------------------------|
A|-------------------------------------------------------------------------|
F|-------------------------------------------------------------------------|
C|----15---14-----15-----15---14-----12------------------------------------|
G|--0----0----0-0------0----0----0-0---------------------------------------|
C|0------------------0-----------------------------------------------------|



| /  slide up
| \  slide down
| h  hammer-on
| p  pull-off
| ~  vibrato
| +  harmonic
| x  Mute note
Comments