Bullet For My Valentine - Room 409 Chords & Tabs

 

Room 409 Chords & Tabs

Bullet For My Valentine Chords & Tabs

Version: 2 Type: Tab 0 ratings
1 star 2 stars 3 stars 4 stars 5 stars
comments

Room 409 Tab

Intro

D|---------------------------------------------------------------------------------------------------|
A|---------------------------------------------------------------------------------------------------|
F|---------------------------------------------------------------------------------------------------|
C|---------------------------------------------------------------------------------------------------|
G|--8-------8---------------7-------7---------------8-------8---------------7-------7----------------|
C|----0-0-0---0-0-0-000-000---0-0-0---0-0-0-000-000---0-0-0---0-0-0-000-000---0-0-0---0-0-0-7b-------|
pm    . . .   . . . ... ...   . . .   . . . ... ...   . . .   . . . ... ...   . . .   . . .

D|----------------------------------------------------------------------------------------------------|
A|----------------------------------------------------------------------------------------------------|
F|----------------------------------------------------------------------------------------------------|
C|----------------------------------------------------------------------------------------------------|
G|--8-------8---------------7-------7---------------8-------8---------------7h8-7h8~-7h8-7h8~-8-7-----|
C|----0-0-0---0-0-0-000-000---0-0-0---0-0-0-7-8-7-----0-0-0---0-0-0-000-000-----------------------8-5-|
pm    . . .   . . . ... ...   . . .   . . . ... ...   . . .   . . . ... ...

D|------------------------------------------------------------------------------------------------------------|
A|------------------------------------------------------------------------------------------------------------|
F|------------------------------------------------------------------------------------------------------------|
C|--7--0-0-0--7--0-0-0----------5--0-0-0--5--0-0-0-------7--0-0-0--7--0=0-0--------------------------------0~-|
G|--7--0-0-0--7--0-0-0----------5--0-0-0--5--0-0-0-------7--0-0-0--7--0-0-0--------------------------------0~-|
C|--7--0-0-0--7--0-0-0-000-000--5--0-0-0--5--0-0-0--0-0--7--0-0-0--7--0-0-0--000-000----8--7--5--7--5--3---0~-|
pm                     ... ...                      . .                      ... ...  |THRASH THESE NOTES|

D|------------------------------------------------------------------------------------------------------------|
A|------------------------------------------------------------------------------------------------------------|
F|------------------------------------------------------------------------------------------------------------|
C|--7--0-0-0--7--0-0-0----------5--0-0-0--5--0-0-0-------7--0-0-0--7--0=0-0-------------8--7--5--7--5--3---0~-|
G|--7--0-0-0--7--0-0-0----------5--0-0-0--5--0-0-0-------7--0-0-0--7--0-0-0-------------8--7--5--7--5--3---0~-|
C|--7--0-0-0--7--0-0-0-000-000--5--0-0-0--5--0-0-0--0-0--7--0-0-0--7--0-0-0--000-000----8--7--5--7--5--3---0~-|
pm                     ... ...                      . .                      ... ...

Verse

D|------------------------------------------------------------------------------------|	
A|------------------------------------------------------------------------------------|	
F|------------------------------------------------------------------------------------| 
C|---------7---5-----------8---7-----------10---7-------------------------------------|	
G|---------------------------------------------------0h1p0h1p0h1p0--3p0h3p0h3p0h3p0---|	
C|-0-0-0-0---0---0-0-0-0-0---0---0-0-0-0-0----0---0-----------------------------------|	
pm . . . .   .   . . . . .   .   . . . . .    .   .						

D|-----------------------------------------------------------------------|	
A|-----------------------------------------------------------------------|	
F|-----------------------------------------------------------------------|	
C|---------8/7---------10/7---------5/7----------------------------------|	
G|---------6/5---------8 /5---------3/5-0h1p0h1p0h1p0--3p0h3p0h3p0h3p0---|	
C|-0-0-0-0-----0-0-0-0------0-0-0-0--------------------------------------|		
pm . . . .     . . . .      . . . .    

Pre-Chorus

D|--------------------------------------------------------------------------------------|
A|--------------------------------------------------------------------------------------|
F|--------------------------------------------------------------------------------------|
C|--------------------------------------------------------------------------8--8--8--8--|
G|--8-------8---------------7-------7-------------8-------8-----------------8--8--8--8--|
C|----0-0-0---0-0-0-000-000---0-0-0---0-0-0-0-0-0---0-0-0---0-0-0-000-000---8--8--8--8--|
pm    . . .   . . . ... ...   . . .   . . . . . .   . . .   . . . ... ...

Chorus

D|--------------------------------------------------------------------------------------------------------------|
A|--------------------------------------------------------------------------------------------------------------|
F|--------------------------------------------------------------------------------------------------------------|
C|--7--0-0-0--7--0-0-0----------5--0-0-0--5--0-0-0---------7--0-0-0--7--0=0-0--------------------------------0~-|
G|--7--0-0-0--7--0-0-0----------5--0-0-0--5--0-0-0---------7--0-0-0--7--0-0-0--------------------------------0~-|
C|--7--0-0-0--7--0-0-0-000-000--5--0-0-0--5--0-0-0--0-0-0--7--0-0-0--7--0-0-0--000-000----8--7--5--7--5--3---0~-|
pm                     ... ...                      . . .                      ... ...  |THRASH THESE NOTES|
[ Tab from: http://www.guitartabs.cc/tabs/b/bullet_for_my_valentine/room_409_tab_ver_2.html ]
D|------------------------------------------------------------------------------------------------------------|
A|------------------------------------------------------------------------------------------------------------|
F|------------------------------------------------------------------------------------------------------------|
C|--7--0-0-0--7--0-0-0----------5--0-0-0--5--0-0-0-------7--0-0-0--7--0=0-0-------------8--7--5--7--5--3---0~-|
G|--7--0-0-0--7--0-0-0----------5--0-0-0--5--0-0-0-------7--0-0-0--7--0-0-0-------------8--7--5--7--5--3---0~-|
C|--7--0-0-0--7--0-0-0-000-000--5--0-0-0--5--0-0-0--0-0--7--0-0-0--7--0-0-0--000-000----8--7--5--7--5--3---0~-|
pm                     ... ...                      . .                      ... ...

not figured out the solo yet

but rythm is...

D|------------------------------------------------------------------------------------|	
A|------------------------------------------------------------------------------------|	
F|------------------------------------------------------------------------------------|	
C|---------7---5-----------8---7-----------10---7-------------------------------------|	
G|---------------------------------------------------0h1p0h1p0h1p0--3p0h3p0h3p0h3p0---|	
C|-0-0-0-0---0---0-0-0-0-0---0---0-0-0-0-0----0---0-----------------------------------|		
pm . . . .   .   . . . . .   .   . . . . .    .   .						

D|----------------------------------------------------------------|		
A|----------------------------------------------------------------|		
F|----------------------------------------------------------------|X2
C|-7---7---5---3---8---7---5-7-5--0--0-0--------------------------|		
G|-7------------------------------0--0-0--2--2-2--3--3-3--5--5-5--|		
C|-7-7---0---0---0---0---0--------0--0-0--2--2-2--3--3-3--5--5-5--|		
pm   .   .   .   .   .   . . . .

D|-----------------------------------------------------------------|		
A|-----------------------------------------------------------------|		
F|-----------------------------------------------------------------|X2
C|-7-0-7p0-5p0-3p0-8p0-7p0-5h7p5---0--0-0--------------------------|		
G|-7-------------------------------0--0-0--2--2-2--3--3-3--5--5-5--|		
C|-7-------------------------------0--0-0--2--2-2--3--3-3--5--5-5--|		
pm

Breakdown

D|--------------------------------------------------------------------------------------------------------------------------|
A|----------------------10-8~---------------------10-11~----------------------------10-<8>----------------------------10-11-|
F|--------------------------------------------------------------------------------------------------------------------------|
C|--8--0--8-0~--8-0--/8-------8--0--8-0~--8-0--/8--------8--0--8-0~---------8-0--/8--------8--0--8-0~---------8-0--/8-------|
G|--8--0--8-0~--8-0-----------8--0--8-0~--8-0------------8--0--8-0~---------8-0------------8--0--8-0~---------8-0-----------|
C|--8--0--8-0~--8-0-----------8--0--8-0~--8-0------------8--0--8-0~-0-0-0-0-8-0------------8--0--8-0~-0-0-0-0-8-0-----------|
pm  .     .     .             .     .     .              .     .    . . . . .              .     .    . . . . .

Then

D|----------------------------------------------------------------------------------------------------|
A|----------------------------------------------------------------------------------------------------|
F|----------------------------------------------------------------------------------------------------|
C|----------------------------------------------------------------------------------------------------|
G|--8-------8---------------7-------7---------------8-------8---------------7h8-7h8~-7h8-7h8~-8-7-----|
C|----0-0-0---0-0-0-000-000---0-0-0---0-0-0-7-8-7-----0-0-0---0-0-0-000-000-----------------------8-5-|
pm    . . .   . . . ... ...   . . .   . . . ... ...   . . .   . . . ... ...

Chorus

D|--------------------------------------------------------------------------------------------------------------|
A|--------------------------------------------------------------------------------------------------------------|
F|--------------------------------------------------------------------------------------------------------------|
C|--7--0-0-0--7--0-0-0----------5--0-0-0--5--0-0-0---------7--0-0-0--7--0=0-0--------------------------------0~-|
G|--7--0-0-0--7--0-0-0----------5--0-0-0--5--0-0-0---------7--0-0-0--7--0-0-0--------------------------------0~-|
C|--7--0-0-0--7--0-0-0-000-000--5--0-0-0--5--0-0-0--0-0-0--7--0-0-0--7--0-0-0--000-000----8--7--5--7--5--3---0~-|
pm                     ... ...                      . . .                      ... ...  |THRASH THESE NOTES|

D|------------------------------------------------------------------------------------------------------------|
A|------------------------------------------------------------------------------------------------------------|
F|------------------------------------------------------------------------------------------------------------|
C|--7--0-0-0--7--0-0-0----------5--0-0-0--5--0-0-0---------7--0-0-0--7--0=0-0---------------------------------|
G|--7--0-0-0--7--0-0-0----------5--0-0-0--5--0-0-0---------7--0-0-0--7--0-0-0---------------------------------|
C|--7--0-0-0--7--0-0-0-000-000--5--0-0-0--5--0-0-0--0-0-0--7--0-0-0--7--0-0-0--000-000----8--7--5--7--5--3----|
pm                     ... ...                      . . .                      ... ...  |THRASH THESE NOTES|

D|----------------------|
A|----------------------|
F|----------------------|
C|----------------------|
G|----------------------|
C|---10--8--7--8--7--5--|
pm |THRASH THESE NOTES |

D|--------------------------------------------------------------------------|
A|--------------------------------------------------------------------------|	
F|--------------------------------------------------------------------------|	
C|---------7---5-----------8---7-----------10---7---------------------------|	
G|--------------------------------------------------------------------------|	
C|-0-0-0-0---0---0-0-0-0-0---0---0-0-0-0-0----0---0--7-8-7-8--10-12-10-8-0--|	
pm . . . .   .   . . . . .   .   . . . . .    .   .  . . . .  .  .  .  . 
Comments